Home » B » Buckcherry »

Buckcherry - Check Your Head Tabs

Artists:  A B C D E F G H I J K L M N O P Q R S T U V W X Y Z # 

Check Your Head Tabs

(ver. 1) Click to play this song!
Buckcherry
Performed by Buckcherry
Written by Buckcherry, J.Todd







Chords


     G   Cadd9   G7    Em    F   Cadd9*  A   Asus4   D   Dsus4
e-|--3-----3-----1-----0-----1-----0-----0-----0-----2-----3--
B-|--3-----3-----0-----0-----1-----3-----2-----3-----3-----3--
G-|--0-----0-----0-----0-----2-----0-----2-----2-----2-----2--
D-|--0-----2-----0-----2-----3-----2-----2-----2-----0-----0--
A-|--2-----3-----2-----2-----3-----3-----0-----0-----x-----0--
E-|--3-----x-----3-----0-----1-----x-----x-----x-----x-----x--


{intro}

G / Cadd9 / G7 / C / G / Cadd9 / G


{verse 1}

G
Jesse died today

G7
I heard the news it's safe 

C			    G / Cadd9  /G
Photographed nude at age thirteen 

G                      
Nick was a friend of mine 

G7
He died before his time 

C                        G
Dead on acid at age eighteen 

Em                F
Ooh and you still b**ch 

		C /  Cadd9*  / C
about your payments 

Em                    F
It's funny how your looks predict 

	    C
your statements 


{mute}

G


{verse 2}

G
I dressed in black today

G7                            C
it represents this phase I'm in

                               G 
And what it was I can't believe 

G
The stain glass your hiding behind 

G7
it's from a different life 

C                                     G
And what it was it's still in your dreams 

Em                 F                   
Ohh and you still b**ch

                 C / Cadd9* / C
about your payments 

Em                    F
It's funny how your looks 

                   C
predict you statements 

{MUTE}

{Chorus}

               G 
So check your head

                         C / Cadd9* / C
set your eyes on your dreams 

                   A / Asus4 / A
Be happy with nothing 

                           D / Dsus4 / D
You're a sight to see my love 

(x2) 

{solo}

e-|-10-10--8-8--7-7--5-5--3-3--2-2--3-3--5-5--8-8--7-7--5-5-3-5/7/5--3-3--2-2-0
B-|-----------------------------------------------------------------------------
G-|-----------------------------------------------------------------------------
D-|-----------------------------------------------------------------------------
A-|-----------------------------------------------------------------------------
E-|-----------------------------------------------------------------------------





{Bridge}

      G
You fell out of time with some distance to go 

C
It's not a design it's a talent show 

A
And if you believe it's the end of the line 

D
you'll be taken 


      C            D
Now Jesse never thought that what 

     G6        F#/G      Em
she did would change my life 

 C                     D                  G / Cadd9 / G
She just thought her life was a waste of time 

     C                     D
And Nick worked hard to graduate 

      G6  F#/G       Em    
and after that he died

   C                     D                     F
he always thought high school was a waste of time 



{Chours}

               G 
So check your head

                         C / Cadd9* / C
set your eyes on your dreams 

                   A / Asus4 / A
Be happy with nothing 

                           D / Dsus4 / D
You're a sight to see my love
            
Submit corrections

↑ Back to top | Tablatures and chords for acoustic guitar and electric guitar, ukulele, drums are parodies/interpretations of the original songs. You may use it for private study, scholarship, research or language learning purposes only