Home » B » Buckcherry »

Buckcherry - Too Drunk Bass

Artists:  A B C D E F G H I J K L M N O P Q R S T U V W X Y Z # 

Too Drunk Bass

(ver. 1) Click to play this song!
Buckcherry
This is What the Bass Plays under the lead

----------------------------------------------------------------------------|
------5--3--------------3-----3--5--7--7--5--3------------------------------|
---3--------5--------3-----5--------------------5---------------------------|
---------------3--5---------------------------------------------------------|


----------------------------------------------------------------------------|
------5--3--------------3--------3--3--5--5--7--7---------------------------|
---3--------5--------3-----5--5---------------------------------------------|
---------------3--5---------------------------------------------------------|


---5------------------------------------------------------------------------|
------5--3--------------5---------------------------------------------------|
------------5--------3------5--5--5--5--5--5--5--5--0--0--0--0--0--0--0--0--|
---------------3--5---------------------------------------------------------|


----------------------------------------------------------------------------|
----------------------------------------------------------------------------|
--3--3--3--3--3--3--3--3----------------------------------------------------|
----------------------------------------------------------------------------|
            
Submit corrections

↑ Back to top | Tablatures and chords for acoustic guitar and electric guitar, ukulele, drums are parodies/interpretations of the original songs. You may use it for private study, scholarship, research or language learning purposes only