Home » B » Buckcherry »

Buckcherry - Sorry Bass

Artists:  A B C D E F G H I J K L M N O P Q R S T U V W X Y Z # 

Sorry Bass

(ver. 1) Click to play this song!
Buckcherry
0:06
G|--------------------------------------------------------|
D|---575~~\-----------------------------------------------|
A|--5---------------5~-5~-5r5~---------------5~---5r5~----|
E|-3-------3r3~------------------3~---3r3~------------0-2-|

0:22
G|------------------------------------------------------------------------------|
D|-----------------8-----7------------------------------------------------------|
A|-------------5~---5~-4---2~----0~---0------------0-2~----0~-------------------|
E|-3~---3r3~-------------------23-------3~---3r3~--------23----320~-0-0-0-0-235-|

0:43
G|-------------------------------------------------------------|
D|-------------------------------------------------------91112-|
A|-5~-5~---0~---0-2~--75-------------------75------------------|
E|-------23-------------752-2-2-023~---3\0---875~-0505~--------|

0:58
G|-----------------------------------------------------------|
D|--------9--------------------------------------------------|
A|-5~-7810-12----12-------54---------------------------------|
E|------------12----567~----752-2-2-023~-3-2-0~-20375~-0505~-|

1:13
G|----------------------------------------------------------------------------|
D|----------------------------------------------------------------------------|
A|-----------5~----5~-20------------5~---5r5-5-7-10~---10r10~---5~--05r5~7----|
E|-3~---3r3~-----57-----3~---3r3~------------------------------------------75-|

1:35
G|--------------------------------------------------------------------------------|
D|-----------------8-----7--------------------------------------------------------|
A|-----------8-5~---5~-4---2~-----------------------------------------------------|
E|-3~---3r3~-------------------235~---0-3~-3~-03r3~--5-7~--235~532-0~-0-0-0-0-235-|

1:57
G|---------------------------------------------------------------|
D|---------------------------------------------------------------|
A|-5~-5~---0-0-0-112~--75--------------------------------------7-|
E|-------23--------------752-2-2-023~--3-3\0-30375~-0505~--5~75--|

2:11
G|-------------------------------------------------------------------|
D|--------9----------------------------------------------------------|
A|-5~-7810-12-12-12-------54-----------------------------------------|
E|------------------567~----752-2-2-023~-3-2-0~-20375~-05r5~-5r5~-56-|

2:26
G|----------------------------------------------------------------------------------|
D|----------------------------------------------------------------------------------|
A|------4-5~-875----------------7~-75432~-2-1-0-0-0-2-3-3/7-7/10-10-12107-0-0-0-0-0-|
E|-7~-7---------75~-5-530-0-0-53----------------------------------------------------|

2:46
G|-----------------------------------------------------------------|
D|-----------------------------------------------------------------|
A|-5~-5~---0-0-0-112~--75--------------------75--------------------|
E|-------23--------------752-2-2-023~--3-3\0---875~-05r5~-05r5~-57-|

3:00
G|----------------------------------------------------------------------|
D|--------9--------------------------------------------------0-/12~8753-|
A|-5~-7810-12----12------54---------------------------------------------|
E|------------12----567~7--752-2-2-02-3~-3-2-0~-20375~-0505~------------|

3:15
G|--------------------------------------------------|
D|-------7h8p7---7----------------------------------|
A|-5~-7h8------7---0-2-20---------------------------|
E|-----------------------322-2-2-023~-3-2-0~-30375~-|
            
Submit corrections

↑ Back to top | Tablatures and chords for acoustic guitar and electric guitar, ukulele, drums are parodies/interpretations of the original songs. You may use it for private study, scholarship, research or language learning purposes only