» » »

Bring Me The Horizon - The Fox And The Wolf Tabs

Artists:  A B C D E F G H I J K L M N O P Q R S T U V W X Y Z # 

The Fox And The Wolf Tabs

(ver. 1) Click to play this song!
Bring Me The Horizon
 Rating:
4/5 (22 votes)

 The Fox And The Wolf lessons Tabs too difficult? Try these video lessons and learn fast
 
                0:00
d|---------------------------------------------------------------------------------|
A|---------------------------------------------------------------------------------|
F|---------------------------------------------------------------------------------|
C|---------------------------------------------------------------------------------|
G|-------------2/5-5-5-5--3--3--3--6-6-6-6-----------3/6-6-6-6-----------2/5-5-5-5-|
C|---0-0-0-0-0-2/5-5-5-5--3--3--3--6-6-6-6-0-0-0-0-0-3/6-6-6-6-0-0-0-0-0-2/5-5-5-5-|
       *   *                                 *   *               *   *
                      
                      |0:24
0:21                  |Josh Scogin Interlude
d|----------------5---|--------------------------------0-------------------------------0--------|
A|----------------5---|--------------------------------0-------------------------------0--------|
F|--------------------|-------------------------------------------------------------------------|
C|--------------------|-------------------------------------------------------------------------|
G|-0--0--0--0-0-0-----|---0------1---4---0------0----------0------1---4---0------1--0-----0-0-0-|
C|-0--0--0--0-0-0-----|---0------1---4---0------0----------0------1---4---0------1--0-----0-0-0-|
                * +

0:36
Rhythm
d|-----------------------------------------------------------------------------------|
A|-----------------------------------------------------------------------------------|
F|-----------------------------------------------------------------------------------|
C|-----------------------------------------------------------------------------------|
G|-----------------------------------------------------------------------------------|
C|-0--0-0--0-0--0---0-0--0-0--0---0-0--0-0--0---0-0--0-0--0---0-0--0-0--0---0-0--0-0-|

Lead                                                      |0:40
d|-5------------------------------------------------------|---------0--------|
A|-5------------------------------------------------------|---------0--------|
F|--------------------------------------------------------|------------------|
C|--------------------------------------------------------|------------------|
G|--------------------------------------------------------|---1--0-----0-0-0-|
C|--------------------------------------------------------|---1--0-----0-0-0-|
   +

0:42
Rhythm
d|-----------------------------------------------------------------------------------|
A|-----------------------------------------------------------------------------------|
F|-----------------------------------------------------------------------------------|
C|-----------------------------------------------------------------------------------|
G|-----------------------------------------------------------------------------------|
C|-0--0-0--0-0--0---0-0--0-0--0---0-0--0-0--0---0-0--0-0--0---0-0--0-0--0---0-0--0-0-|

Lead                                                      |0:46
d|-5------------------------------------------------------|---------0--------------0----------|
A|-5------------------------------------------------------|---------0--------------0----------|
F|--------------------------------------------------------|-----------------------------------|
C|--------------------------------------------------------|-----------------------------------|
G|--------------------------------------------------------|---1--0-----0-0-0-1--0-----0-0-0-0-|
C|--------------------------------------------------------|---1--0-----0-0-0-1--0-----0-0-0-0-|
   +

0:50
Rhythm                                                                            |0:54
d|--------------------------------------------------------------------------------|-------0----------|
A|--------------------------------------------------------------------------------|-------0----------|
F|--------------------------------------------------------------------------------|------------------|
C|--------------------------------------------------------------------------------|------------------|
G|--------------------------------------------------------------------------------|-1--0-----0-0-0-0-|
C|-0-0--0-0--0---0-0--0-0--0---0-0--0-0--0-0-0--0-0-0--0---0-0--0-0--0---0-0--0-0-|-1--0-----0-0-0-0-|

0:55
Rhythm                                                                            
d|--------------------------------------------------------------------------------|
A|--------------------------------------------------------------------------------|
F|--------------------------------------------------------------------------------|
C|--------------------------------------------------------------------------------|
G|--------------------------------------------------------------------------------|
C|-0-0--0-0--0---0-0--0-0--0---0-0--0-0--0-0-0--0-0-0--0---0-0--0-0--0---0-0--0-0-|

1:00                             |1:04
d|-------0-----------------------|-------------------------------------------------------------------------|
A|-------0-----------------------|-------------------------------------------------------------------------|
F|-------------------------------|-------------------------------------------------------------------------|
C|-------------------------------|-------------------------------------------------------------------------|
G|-1--0-----0-0-0-0--0--0--0-0-0-|---0-0-0-0-0-0-0-0-1-1-1-1-1/4-4-4--0-0-0--0----0--0----0-0-0-0-0--0--0--|
C|-1--0-----0-0-0-0--0--0--0-0-0-|---0-0-0-0-0-0-0-0-1-1-1-1-1/4-4-4--0-0-0--0----0--0----0-0-0-0-0--0--0--|
                                                                      * *                 * * * *  

d|------0------------------------------------------------------------------------------0-|
A|------0------------------------------------------------------------------------------0-|
F|---------------------------------------------------------------------------------------|
C|---------------------------------------------------------------------------------------|
G|0--0------0-0-0-0-0-0-0-0-1-1-1-1-1/4-4-4--0-0-0--0----0--0----0-0-0-0-0--0--0--0--0---|
C|0--0------0-0-0-0-0-0-0-0-1-1-1-1-1/4-4-4--0-0-0--0----0--0----0-0-0-0-0--0--0--0--0---|
                                             * *                 * * * * 

1:17
d|----------------------------------------------------------------------------0-|
A|----------------------------------------------------------------------------0-|
F|------------------------------------------------------------------------------|
C|------------------------------------------------------------------------------|
G|-0-0-0-0-0-0-0-0-1-1-1-1-1/4-4-4--0-0-0--0----0--0----0-0-0-0-0--0--0--0--0---|
C|-0-0-0-0-0-0-0-0-1-1-1-1-1/4-4-4--0-0-0--0----0--0----0-0-0-0-0--0--0--0--0---|
                                    * *                 * * * * 

1:24
d|-------------------------------------------------------------------------------|
A|-------------------------------------------------------------------------------|
F|-------------------------------------------------------------------------------|
C|-------------------------------------------------------------------------------|
G|-0-0-0-0-0-0-0-0-1-1-1-1-1/4-4-4--0-0-0--0----0--0----0-0-0-0-0--0--0--0--0--0-|
C|-0-0-0-0-0-0-0-0-1-1-1-1-1/4-4-4--0-0-0--0----0--0----0-0-0-0-0--0--0--0--0--0-|
                                    * *                 * * * * 

1:30                                            |1:36
d|----------------------------------------------|------------------------0--------|
A|----------------------------------------------|------------------------0--------|
F|----------------------------------------------|---------------------------------|
C|----------------------------------------------|---------------------------------|
G|-0-0-0--0----0--0----0-0-0-0-0--0--0--0--0--0-|-0--0--0--0-0-0-1--0-----0-0-0-0-|
C|-0-0-0--0----0--0----0-0-0-0-0--0--0--0--0--0-|-0--0--0--0-0-0-1--0-----0-0-0-0-|
            
Submit corrections


        The Fox And The Wolf lessons Hard to play? Try these video lessons and learn fast The Fox And The Wolf lessons
        
↑ Back to top | Tablatures and chords for acoustic guitar and electric guitar, ukulele, drums are parodies/interpretations of the original songs. You may use it for private study, scholarship, research or language learning purposes only