» » »

Bring Me The Horizon - Sugar Honey Ice And Tea Tabs

Artists:  A B C D E F G H I J K L M N O P Q R S T U V W X Y Z # 

Sugar Honey Ice And Tea Tabs

(ver. 1) Click to play this song!
Bring Me The Horizon
 Rating:
4.4/5 (11 votes)

 Sugar Honey Ice And Tea lessons Tabs too difficult? Try these video lessons and learn fast
 
                [Intro]

e |---------------------------------------------------------------------------|
B |---------------------------------------------------------------------------|
G |---------------------------------------------------------------------------|
D |---------------------------------------------------------------------------|
A |------------------6-8-10----------------------8-10-8-6---------------------|
C#|-7-9-4/11-11-9-11---------7-9-4/11-11-11-9-11-----------------------------| x2

e |---------------------------------------------------------------------------|
B |---------------------------------------------------------------------------|
G |---------------------------------------------------------------------------|
D |---------------------------------------------------------------------------|
A |---------------------------------------------------------------------------|
C#|7-7-7-7-6-4-6-2------------------------------------------------------------|

Play this 2 times


[Verse]

e |---------------------------------------------------------------------------|
B |---------------------------------------------------------------------------|
G |---------------------------------------------------------------------------|
D |---------------------------------------------------------------------------|
A |----------------------------6-8-10-----------------------------------------|
C#|7-7-7-7\4-4-4/11-11-11-9-11------------------------------------------------|

e |---------------------------------------------------------------------------|
B |---------------------------------------------------------------------------|
G |---------------------------------------------------------------------------|
D |---------------------------------------------------------------------------|
A |---------------------------8-10--------------------------------------------|
C#|7-7-7-7\4-4-4/11-11-11-9-11------------------------------------------------|

Play this until chorus

[Chorus]

e |---------------------------------------------------------------------------|
B |---------------------------------------------------------------------------|
G |---------------------------------------------------------------------------|
D |---------------------------------------------------------------------------|
A |---------------------------------------------------------------------------|
C#|7-7-7-7/11-11-11-11-11\4-4-4-4-4-4-4-4-------------------------------------| x4

Then play intro

Palm Muted part is same as chorus

[Solo]

e |---------------------------------------------------------------------------|
B |---------------------------------------------------------------------------|
G |8\10-8\10-10/12-10--8/10-8-12---8-8-5--------------------------------------|
D |---------------------------------------------------------------------------|
A |---------------------------------------------------------------------------|
C#|---------------------------------------------------------------------------|

e |---------------------------------------------------------------------------|
B |---------------------------------------------------------------------------|
G |8\10-8\10-10/12-10----8/10-8/10-10/12-5---8-5-3----------------------------|
D |------------------------------------------------3-5------------------------|
A |---------------------------------------------------------------------------|
C#|---------------------------------------------------------------------------|

            
Submit corrections


        Sugar Honey Ice And Tea lessons Hard to play? Try these video lessons and learn fast Sugar Honey Ice And Tea lessons
        
↑ Back to top | Tablatures and chords for acoustic guitar and electric guitar, ukulele, drums are parodies/interpretations of the original songs. You may use it for private study, scholarship, research or language learning purposes only