» » »

Bring Me The Horizon - Sleep With One Eye Open Tabs

Artists:  A B C D E F G H I J K L M N O P Q R S T U V W X Y Z # 

Sleep With One Eye Open Tabs

(ver. 1) Click to play this song!
Bring Me The Horizon
 Rating:
4/5 (4 votes)

 Sleep With One Eye Open lessons Tabs too difficult? Try these video lessons and learn fast
 
                  SLEEP WITH ONE EYE OPEN


I had to take out the swear words,  maybe at the major breakdown were it says "bow down 
me" there using chords, instead of notes


Some bites can be played on a different area on the fretboard, but its the same note, I 

could be this way |------     or this  |------|
                  |------              |------|
                  |------              |-2--3-|
                  |-7--8-              |-0--1-|
                  |-5--6-              |------|
                  |------              |------|

                  |-----       or this |-3----|
                  |--8--               |----3-|
                  |----7               |------|
                  |-----               |------|
                  |-----               |------|
                  |-----               |------|


Sorry if thats obvious.


Gtr 1 - Tuning Drop G


         * - PALM MUTE


 Gtr 1: (0:23)

|--------------------------------------------------------------|
|--------------------------------------------------------------|
|--------------------------------------------------------------|
|--------------------------------------------------------------|
|--------------------------------------------------------------|
|---0-3--0--1--0------0-0 0--12--0-0-0--12--10--12--13---------|

|----------------------------------------------------------------|
|----------------------------------------------------------------|
|----------------------------------------------------------------|
|----------------------------------------------------------------|
|----------------------------------------------------------------|
|--0-0-0-12-0-0-0--12--10--12--13--16----------------------------|
                                   ~


(0:32)

|--------------------------------------------------------------------|
|--------------------------------------------------------------------|
|--------7--------7--5--7--8-----------------------------------------|
|--------------------------------------------------------------------|
|--------5--------5--3--5--6-----------------------------------------|
|-0-0-0----0-0-0-----------------------------------------------------|

|---------------------------------------------------------------------|
|-------------------------------8-------------------------------------|
|--------7--------7--5--7--8----7-------------------------------------|
|---------------------------------------------------------------------|
|--------5--------5--3--5--6------------------------------------------|
|-0-0-0----0-0-0------------------------------------------------------|


                ###### YOU

|--------------------------------------------------------------|
|--------------------------------------------------------------|
|--------------------------------------------------------------|
|--------------------------------------------------------------|
|--------------------------------------------------------------|
|-0-0-0--0----------------------0-0-0-12--0--0--0--12-10-12-13-|
                                      ~

1st guitar

|--------------------------------------------------------------|
|--------------------------------------------------------------|
|--------------------------------------------------------------|
|--------------------------------------------------------------|
|--------------------------------------------------------------|
|0-0-0-0----------12-10-12-13-16-------0-0-0-0-----------------|
|                          ~  ~
|
|
|Second guitar
|--------------------------------------------------------------|
|--------------------------------------------------------------|
|--------------------------------------------------------------|
|--------------------------------------------------------------|
|--------------------------------------------------------------|
|0-0-0-0----------12-10-12-13-16-------0-0-0-0--0--------------|
                           ~  ~

                                          'double pedal starts'

|--------------------------------------------------------------|
|--------------------------------------------------------------|
|--------------------------------------------------------------|
|--------------------------------------------------------------|
|--------------------------------------------------------------|
|-0-0-0-12-----0-0-0-12-10-12-13----0-0-0---000--000-----------|

                                            ***  ***

|--------------------------------------------------------------|
|-------------------------------------------8------------------|
|-------------------------------------------7------------------|
|--------------------------------------------------------------|
|--------------------------------------------------------------|
|-0-0-0--13--0-0-0-12--0-0-0--12-10-12-13----------------------|


Verse (01.01)

you took what you wanted and left,           like locusts.

|----------------------------------------------------------------|
|----------------------------------------------------------------|
|----------------------------------------------------------------|
|-7----10--9---------13--\-12-----8------------------------------|
|-5----8---7---------11----10-----6------------------------------|
|---------------0---------------------0------12-12-12--13--10----|
                *                     *

everything i gave to you,        everything that we've been through

|----------------------------------------------------------------|
|----------------------------------------8----------------8------|
|-------------------------------------------7----------------7---|
|-7----10--9---------13--\-12-----8------------------------------|
|-5----8---7---------11----10-----6------------------10----------|
|---------------0------------------------------------------------|
                *

you bled me dry and then left,                 like leeches.

|----------------------------------------------------------------|
|----------------------------------------------------------------|
|----------------------------------------------------------------|
|-7----10--9---------13--\-12-----8------------------------------|
|-5----8---7---------11----10-----6------------------------------|
|---------------0---------------------0------12-12-12--13--10----|


go, you got what you could now leave,     like     vultures

|----------------------------------------------------------------|
|----------------------------------------8----------------8------|
|-------------------------------------------7----------------7---|
|-7----10--9---------13--\-12-----8------------------------------|
|-5----8---7---------11----10-----6------------------10----------|
|---------------0------------------------------------------------|


(1.17)
ripped apart in minutes,         what was built in seven years

|---------------------------------------------8-----------------|
|------------6--------------------------------------------------|
|---------------------------------------------------------------|
|-------8-------8------x2-------------10-----------10-----X2----|
|--6-----------------------------8------------------------------|
|---------------------------------------------------------------|


the ink scarred on your back may as well of dissapeared


|--------------------------------------------------------------|
|--11-----------------------------10---------------------------|
|--------------------------------------------------------------|
|--8------------------------------7----------------------------|
|--------------------------------------------------------------|
|--------------------------------------------------------------|


for as long as I remember,     you sold everything you owned

|--------------------------------------------------------------|
|------------6--------------------------------8----------------|
|--------------------------------------------------------------|
|-------8-------8------x2-------------10-----------------------|
|--6-----------------------------8-----------------------------|
|--------------------------------------------------------------|


but now you sold our friendship, you're on your ...
|--------------------------------------------------------------|
|--11-----------------------------10---------------------------|
|--------------------------------------------------------------|
|--8------------------------------7----------------------------|
|--------------------------------------------------------------|
|--------------------------------------------------------------|


(1.33 - 1.34)
OWN
|--------------------------------------------------------------|
|--------------------------------------------------------------|
|--------------------------------------------------------------|
|-7---8----------13---12---------------------------------------|
|-5---6----------11---10---------------------------------------|
|--------------------------------------------------------------|


CHorus
 SLeep with one eye open

|---------------------------------------------------------------------------|
|---------------------------------------------------------------------------|
|---------------------------------------------------------------------------|
|-7---11----8----10--7------------------------------------------------------|
|-5---9-----6----8---5------------------------------------------------------|
|--------------------------12-12-12--14-14-14--15--15--15----19--19--19--19-|


(1.50)
|-------------------------------------|------------------------|
|-------------------------------------|------------------------|
|-------------------------------------|------------------x2----|
|-7----10--9---------13--\-12-----8---|------------------------|
|-5----8---7---------11----10-----6---|--5---6----3------------|
|---------------0---------------------|------------------------|
                *


        coz

|----------------|
|----------------|
|----------------|
|-2.5------------|
|----------------|
|----------------|
(natural harmonic)

( 1.57)

If I had it my way, Ill slit your throat with the knife that you left in my back
|--------------------------------------------------------------|
|--------------------------------------------------------------|
|--------------------------------------------------------------|
|--------------------------------------------------------------|
|--------------------------------------------------------------|
|-0------------------------------------------------------------|

       All this shame, all this guilt, all this regret , thats me
|--------------------------------------------------------------|
|--------------------------------------------------------------|
|--------------------------------------------------------------|
|--------------------------------------------------------------|
|--------------------------------------------------------------|
|-\----0-------------------------------------------------------|


Im in   side  of     YOU                         Im   in

|----------------------------------------------------------------|
|----------------------------------------------------------------|
|----------------------------------------------------------------|
|----------------------------------------------------------------|
|----------------------------------------------------------------|
|--------0-----0-----0000----0--00---0--00-00--------------------|


 s       i    de    of       you                    Im in
|--------------------------------------------------------------|
|--------------------------------------------------------------|
|--------------------------------------------------------------|
|--------------------------------------------------------------|
|--------------------------------------------------------------|
|-0--12-12-12--13--10--------0000---0-00--0--00-00-------------|


 s       i    de    of       you                      Im in
|--------------------------------------------------------------|
|--------------------------------------------------------------|
|--------------------------------------------------------------|
|--------------------------------------------------------------|
|--------------------------------------------------------------|
|-0--12-12-12--13--10--------0000---0-00--0--00-00-------------|


 side of                      YOU                           and
|----------------------------------------------------------------|
|----------------------------------------------------------------|
|----------------------------------------------------------------|
|----------------------------------------------------------------|
|----------------------------------------------------------------|
|-----------------------------0000---0-00--0--00-00--------------|


THIS IS YOUR world ....... falling apart  MATE

|---------------------------------------------------------------|
|-------------8-----------------------------8-------------------|
|---------------7------------------------------7----------------|
|-11------------------------------------------------------------|
|-9------------------------6------------------------------------|
|---------------------------------------------------------------|

1st Guitar
|---------------------------------------------------------------------|
|---------------------------------------------------------------------|
|---------------------------------------------------------------------|
|---------------------------------------------------------------------|
|---------------------------------------------------------------------|
|--------121213-----00-0--00-0--0000------121213---00--0--1313--1010--|
|                   **    **    ***                          ~
|Second Guitar
|---------------------------------------------------------------------|
|---------------------------------------------------------------------|
|---------------------------------------------------------------------|
|---------------------------------------------------------------------|
|---------------------------------------------------------------------|
|--------121213-----------------0000------121213---00--0--1313--1010--|
                                ***


          Fall     a   p  a  r    t  at  your  feet

|--------------------------------------------------------------------------|
|--------------------------------------------------------------------------|
|--------------------------------------------------------------------------|
|--------------------------------------------------------------------------|
|--------------------------------------------------------------------------|
|--------121213-----00-0--00-0--00-0-----0000----------121213--------------|
|                   **    **    **       ***
|Second Guitar
|---------------------------------------------------------------------|
|---------------------------------------------------------------------|
|---------------------------------------------------------------------|
|---------------------------------------------------------------------|
|---------------------------------------------------------------------|
|--------121213--------------------------0000----------121213---------|
                                         ***


            YOUVE  GOT         HELL TO     P    A   Y

|--------------------------------------------------------------------------|
|--------------------------------------------------------------------------|
|--------------------------------------------------------------------------|
|------------1111--8-8-----------------------------------------------------|
|------------9-9---6-6-----------------------------------------------------|
|--0000-----------------------121213-------0-0-0-0-0---------121213--------|


Yeah    YOUVE GOT       HELL TO            P   A   Y              and you

|-------------------------------------------------------------------------|
|-------------------------------------------------------------------------|
|-------------------------------------------------------------------------|
|-------------------------------------------------------------------------|
|-------------------------------------------------------------------------|
|-0------1313-1010------121213------------0-0-0-0-0-0------------121213---|

better    ... ...     BOW!!     "double pedal"       BOW        DOWN
|-------------------------------------------------------------------------|
|-------------------------------------------------------------------------|
|-------------------------------------------------------------------------|
|---------1111-88---------------------------------------------------------|
|---------9-9--66---------------------------------------------------------|
|----------------------121213-------------------------121213-----00000----|
                                                                 ****


  TO    MEEE                              YOU BETTER BEG  FOR    MERC
|-------------------------------------------------------------------------|
|-------------------------------------------------------------------------|
|-------------------------------------------------------------------------|
|-------------------------------------------------------------------------|
|-------------------------------------------------------------------------|
|-------121213--------1313-0-1010----------121213-----00000-----121213----|
                                                      ****

  Y                 GET                     ON YOUR .......

|-------------------------------------------------------------------------|
|-------------------------------------------------------------------------|
|-------------------------------------------------------------------------|
|-1111--88---------------let ring-----------------------------------------|
|-9-9---66----------------------------------------------------------------|
|-------------------0-0-0--------------------00000---121213---------------|
                                             ****

KNEEEES                AND CRY        ME            A ......

|-------------------------------------------------------------------------|
|-------------------------------------------------------------------------|
|---------------------------let-ring--------------------------------------|
|----------------------- -------------------------------------------------|
|-------------------------------------------------------------------------|
|----1313-0-1010------0-0-0-----------00000----------121213---------------|
                                      ****

 river

|-------------------------------------------------------------------------|
|-------------------------------------------------------------------------|
|-------------------------------------------------------------------------|
|--------------------7------let--ring-----------fade--out----pick-scr*pe--|
|--------------------5-- -------------------------------------------------|
|--0-0-0------------------------------------------------------------------|
   * * *


|---------------------------------------------------------------------------|
|------------------------------------------8--------------------------------|
|----------------------------------------------7----------------------------|
|----7---11--8----10--------x2----------------------------------------------|
|----5---9---6----8---------------------------------------------------------|
|---------------------------------------------------------------------------|


CHorus
 SLeep with one eye open

|---------------------------------------------------------------------------|
|---------------------------------------------------------------------------|
|---------------------------------------------------------------------------|
|-7---11----8----10--7------------------------------------------------------|
|-5---9-----6----8---5------------------------------------------------------|
|--------------------------12-12-12--14-14-14--15--15--15----19--19--19--19-|


(3.52)

|-------------------------------------------------------------------------|
|-------------------------------------------------------------------------|
|-------------------------------------------------------------------------|
|-------------------------------------------------------------------------|
|----------------------- -------------------------------------------------|
|--0000-------------------------------------------------------------------|
   ***

(3.54 -3.55
|-------------------------------------------------------------------------|
|-------------------------------------------------------------------------|
|-------------------------------------------------------------------------|
|-------------------------------------------------------------------------|
|----------------------- -------------------------------------------------|
|--0-00-000-000-000-------------------------------------------------------|
   * ** *** *** ***

(3.56)  Best friends mean forever

1st Guitar
|---------------------------------------------------------------------|
|---------------------------------------------------------------------|
|---------------------------------------------------------------------|
|---------------------------------------------------------------------|
|----------------------- ---------------------------------------------|
|--000-----------0-00-000-000-000--------------000------0000000-------|
|
|Second Guitar
|---------------------------------------------------------------------|
|---------------------------------------------------------------------|
|---------------------------------------------------------------------|
|---------------------------------------------------------------------|
|----------------------- ---------------------------------------------|
|--000--0-0-0-0-0-00-000-000-000----0-0--0-0-0-000--00--0000000-------|


1st Guitar
|---------------------------------------------------------------------|
|---------------------------------------------------------------------|
|---------------------------------------------------------------------|
|---------------------------------------------------------------------|
|---------------------------------------------------------------------|
|--000-----------0-00-000-000-000--------------000------000--000------|
|
|Second Guitar
|---------------------------------------------------------------------|
|---------------------------------------------------------------------|
|---------------------------------------------------------------------|
|---------------------------------------------------------------------|
|----------------------- ---------------------------------------------|
|--000--0-0-0-0-0-00-000-000-000----0-0--0-0-0-000--00--000--000------|



(4.05 - 4.06)  ..........
|-------------------------------------------------------------------------|
|-------------------------------------------------------------------------|
|-------------------------------------------------------------------------|
|--------let-palm-note-ring-----------------------------------------------|
|------------------------ ------------------------------------------------|
|-\-0---------------------------------------------------------------------|
    *


(4.06

|---------------------------------------------------------|
|---------------------------------------------------------|
|---------------------------------------------------------|
|---------------------------------------------------------|
|---------------------------------------------------------|
|--000----0-00-000-000-000----000--00000000---------------|

|---------------------------------------------------------|
|---------------------------------------------------------|
|---------------------------------------------------------|
|---------------------------------------------------------|
|---------------------------------------------------------|
|--000--0-00-000-000-000-03--0-\13--000-------------------|
            
Submit corrections


        Sleep With One Eye Open lessons Hard to play? Try these video lessons and learn fast Sleep With One Eye Open lessons
        
↑ Back to top | Tablatures and chords for acoustic guitar and electric guitar, ukulele, drums are parodies/interpretations of the original songs. You may use it for private study, scholarship, research or language learning purposes only