» » »

Bring Me The Horizon - Run Tabs

Artists:  A B C D E F G H I J K L M N O P Q R S T U V W X Y Z # 

Run Tabs

(ver. 1) Click to play this song!
Bring Me The Horizon
 Rating:
4.3/5 (29 votes)

 Run  lessons Tabs too difficult? Try these video lessons and learn fast
 
                [Solo]
e|--14------------14-----|
B|-----15-14---15----12--|
G|-----------------------|
D|-----------------------|
A|-----------------------|
E|-----------------------|

e|--14------------14-----|
B|-----15-14---15----12--|
G|-----------------------|
D|-----------------------|
A|-----------------------|
E|-----------------------|            
Submit corrections


        Run  lessons Hard to play? Try these video lessons and learn fast Run  lessons
        
↑ Back to top | Tablatures and chords for acoustic guitar and electric guitar, ukulele, drums are parodies/interpretations of the original songs. You may use it for private study, scholarship, research or language learning purposes only