Home » B » Bring Me The Horizon »

Bring Me The Horizon - [ost] (spi)ritual Tabs

Artists:  A B C D E F G H I J K L M N O P Q R S T U V W X Y Z # 

[ost] (spi)ritual Tabs

(Version #1)
Bring Me The Horizon
[Intro]
d|---------------------------------------------------------------------------------------------|
A|---------------------------------------------------------------------------------------------|
F|---------------------------------------------------------------------------------------------|
C|---------------------------------------------------------------------------------------------|
G|-5--5--5--5--5--5--8--8--8--8--8--8--8--8--8--8--0--0--0--1--1--1--1--1--1--1--1--1--1--3--3-|
C|-5--5--5--5--5--5--8--8--8--8--8--8--8--8--8--8--0--0--0--1--1--1--1--1--1--1--1--1--1--3--3-|
   PM------------------------------------------------------------------------------------------|
 
d|---------------------------------------------------------------------------------------------|
A|---------------------------------------------------------------------------------------------|
F|---------------------------------------------------------------------------------------------|
C|---------------------------------------------------------------------------------------------|
G|-5--5--5--5--5--5--8--8--8--8--8--8--8--8--8--8--0--0--0--1--1--1--1--1--1--1--1--1--1-------|
C|-5--5--5--5--5--5--8--8--8--8--8--8--8--8--8--8--0--0--0--1--1--1--1--1--1--1--1--1--1-------|
   PM------------------------------------------------------------------------------------------|
 
[Verse]
d|---------------------------------------------------------------------------------------------|
A|---------------------------------------------------------------------------------------------|
F|----------------------------------------------------------------------------------------10\--|
C|----------------------------------------------------------------------------------------10\--|
G|----------------------------------------------------------------------------------------8-\--|
C|----------------------------------------------------------------------------------------8-\--|
 
d|---------------------------------------------------------------------------------------------|
A|---------------------------------------------------------------------------------------------|
F|-------------------------------------------------2--------3----------------------------------|
C|-5-----------------8-----------------------------2--------3----------------------------------|
G|-5-----------------8-----------------------------0--------1----------------------------------|
C|-5-----------------8-----------------------------0--------1----------------------------------|
 
[Pre-Outro]
d|---------------------------------------------------------------------------------------------|
A|---------------------------------------------------------------------------------------------|
F|-------------------------------------------10\---2--------3-----------------------3-----5----|
C|-5-----------------8-----------------------10\---2--------3-----------------------3-----5----|
G|-5-----------------8-----------------------8-\---0--------1-----------------------1-----3----|
C|-5-----------------8-----------------------8-\---0--------1-----------------------1-----3----|
 
[Outro]
d|-------------10----------------------10----------------------10----------------------13----13|
A|-------10-11----11-10----------10-11----11-10-11-------10-11----11-10----------10-11----11---|
F|----12----------------12----12----------------------12----------------12----12---------------|
C|-12----------------------12----------------------12----------------------12------------------|
G|---------------------------------------------------------------------------------------------|
C|---------------------------------------------------------------------------------------------|
 




How to play "[ost] (spi)ritual" by Bring Me The Horizon on guitar

[Intro]

The part makes use of power G and C string power chords, palm-muted.
Chord progression: 5-5-5-8-8-8-0-0-0-1-1-1-3-3.
Pay good attention to constant palm muting to get the rhythm tight.
Exercise the switches within the chords for good transitions.
[Verse]

The verse is made up of single notes and power chords.
First play power chords on the 5th and 8th fret.
Part two: progress to single notes on the C and G strings.
To add dynamics, you can emphasize the slides on the 10th and 8th frets.
Make sure to articulate each note and chord clearly.
[Pre-Outro]

Slide power chords and single notes.
Chord progressions: 5-8 and then 10\2-3.
Practice the smooth transition from chord to slide.
Ensure that there is an even rhythm, especially on the slide.
[Outro]

This section combines melodic picking on higher frets.
Experiment around the 10th, 11th, 12th, and 13th frets.
Emphasize the transitions between 10-11 to 12-13 frets.
Make sure the picking is light and precise to bring out the melody.
[Common Mistakes]

Make sure the palm mutes in the introduction are uniform.
Do not rush the changes of the chords and notes.
Rehearse your slides for fluency and neatness.
[General Tips]

Add a little more weight using a distortion pedal.
Start slow: the timing and transitions depend on it.
Aim to play every note and chord as cleanly as possible.
Gradually increase to song tempo.
Song Facts:
"ostritual" is an instrumental by Bring Me the Horizon. The song has heavy,
rhythmic guitar parts. Bring Me The Horizon was formed in 2004 and played metalcore.
They have been praised for their innovative and dynamic heights. On the other hand,
Lee Malia is a very technically good and creative guitarist. Today, many bands can
be said to have taken influence from them and their impact.

            
Submit corrections

↑ Back to top | Tablatures and chords for acoustic guitar and electric guitar, ukulele, drums are parodies/interpretations of the original songs. You may use it for private study, scholarship, research or language learning purposes only