» » »

Bring Me The Horizon - Oh No Tabs

Artists:  A B C D E F G H I J K L M N O P Q R S T U V W X Y Z # 

Oh No Tabs

(ver. 1) Click to play this song!
Bring Me The Horizon
 Rating:
3.6/5 (22 votes)

 Oh No  lessons Tabs too difficult? Try these video lessons and learn fast
 
                Verse (delay)
|--------------|
|--------------|
|--11--14------|
|--12--12--14--| x4
|----------17--| 
|--------------|


Pre chorus
|--------------------------------------------------------------------------------------|
|--------------------------------------------------------------------------------------|
|----------------11--------------------11--------------------9--------------------9----|
|-12-11-12-11-12----11--12-11-12-11-12----11--12-11-12-11-12---11--12-11-12-11-12---11-| x2
|--------------------------------------------------------------------------------------|
|--------------------------------------------------------------------------------------|


Chorus
|---------------------------------------------------------------------------------------|
|---------------------------------------------------------------------------------------|
|----------------18--------------------18--------------------17-------------------17----|
|-19-18-19-18-19----18--19-18-19-18-19----18--19-18-19-18-19---18--19-18-19-18-19----18-| x2
|---------------------------------------------------------------------------------------|
|---------------------------------------------------------------------------------------|

or

(palm muted)
|-----------------------------------------------------------------|
|-----------------------------------------------------------------|
|-----------------------------------------------------------------|
|-----------------------------------------------------------------| 
|-----------------------------------------------------------------| 
|-5-5-5-5-5-5-5-5-5-5-5-5-5-5-5-5-9-9-9-9-9-9-9-9-4-4-4-4-4-4-4-4-|

|-----------------------------------------------------------------|
|-----------------------------------------------------------------|
|-----------------------------------------------------------------|
|-----------------------------------------------------------------| 
|-----------------------------------------------------------------| 
|-5-5-5-5-5-5-5-5-5-5-5-5-5-5-5-5-9-9-9-9-9-9-9-9-7-7-7-7-7-7-7-7-|


Post Chorus
|---------------------------------------------------------------------------------------|
|---------------------------------------------------------------------------------------|
|----------------18--------------------18--------------------17-------------------17----|
|-19-18-19-18-19----18--19-18-19-18-19----18--19-18-19-18-19---18--19-18-19-18-19----18-| x2
|---------------------------------------------------------------------------------------|
|---------------------------------------------------------------------------------------|


repeat all above


Interlude
|------------------|
|------------------|
|--11--14--14------|
|--12--12--17--14--| x4
|--------------17--| 
|------------------|

or

|--------------------------------------------------------------------------------------|
|--------------------------------------------------------------------------------------|
|----------------11--------------------11--------------------9--------------------9----|
|-12-11-12-11-12----11--12-11-12-11-12----11--12-11-12-11-12---11--12-11-12-11-12---11-| x4
|--------------------------------------------------------------------------------------|
|--------------------------------------------------------------------------------------|


Chorus (before break)
|--------------------------------------------------------------------------------------|
|--------------------------------------------------------------------------------------|
|----------------11--------------------11--------------------9--------------------9----|
|-12-11-12-11-12----11--12-11-12-11-12----11--12-11-12-11-12---11--12-11-12-11-12---11-| x2
|--------------------------------------------------------------------------------------|
|--------------------------------------------------------------------------------------|


Break (2nd interlude)
|---------------------------------------------------------------------------------------|
|---------------------------------------------------------------------------------------|
|----------------18--------------------18--------------------17-------------------17----|
|-19-18-19-18-19----18--19-18-19-18-19----18--19-18-19-18-19---18--19-18-19-18-19----18-| x2
|---------------------------------------------------------------------------------------|
|---------------------------------------------------------------------------------------|

or

|-----------------------------------------------------------------|
|-----------------------------------------------------------------|
|-----------------------------------------------------------------|
|-----------------------------------------------------------------| 
|-----------------------------------------------------------------| 
|-5-5-5-5-5-5-5-5-5-5-5-5-5-5-5-5-9-9-9-9-9-9-9-9-4-4-4-4-4-4-4-4-|

|-----------------------------------------------------------------|
|-----------------------------------------------------------------|
|-----------------------------------------------------------------|
|-----------------------------------------------------------------| 
|-----------------------------------------------------------------| 
|-5-5-5-5-5-5-5-5-5-5-5-5-5-5-5-5-9-9-9-9-9-9-9-9-7-7-7-7-7-7-7-7-|


Chorus x2


Outro (fades out)
|------------------|
|------------------|
|--11--14--14------|
|--12--12--17--14--| x2
|--------------17--| 
|------------------|

End on
|------|
|------|
|--11--|
|--12--| 
|------| 
|------|
            
Submit corrections


        Oh No  lessons Hard to play? Try these video lessons and learn fast Oh No  lessons
        
↑ Back to top | Tablatures and chords for acoustic guitar and electric guitar, ukulele, drums are parodies/interpretations of the original songs. You may use it for private study, scholarship, research or language learning purposes only