» » »

Bring Me The Horizon - Mantra Tabs

Artists:  A B C D E F G H I J K L M N O P Q R S T U V W X Y Z # 

Mantra Tabs

(ver. 1) Click to play this song!
Bring Me The Horizon
 Rating:
4.4/5 (14 votes)

 Mantra lessons Tabs too difficult? Try these video lessons and learn fast
 
                [Intro]

D|--------------|
A|--------------|
F|--------------| x4
C|--------------|
G|--------------|
C|--2--2--2--2--|


[Hook]

D|---------------------------------------------------------|
A|---------------------------------------------------------|
F|---------------------------------------------------------|
C|-------------------------2--------------------------2----|
G|---------------------------------------------------------|
C|--0h7-7--5-5--2--0-2--2-----2---0-2-2--0-2--0-2--2----2--|

D|---------------------------------------------------------|
A|---------------------------------------------------------|
F|---------------------------------------------------------|
C|-------------------------2--------------------------2----|
G|---------------------------------------------------------|
C|--0h7-7--5-5--2--0-2--2-----2---0-2-2--0-2--0-2--2-------|

(Play this bar twice)
D|---------------------------------------------------------------------|
A|---------------------------------------------------------------------|
F|---------------------------------------------------------------------|
C|--------------------------2------------2----------------14-----------|
G|---------------------------------------------------------------------|
C|--17h19-0-17-0-14--0-2--2---2--0-2--2----2---14-17-14p0----17-14h17--|


[Verse]

D|---------------------------------------------------------------|
A|---------------------------------------------------------------|
F|---------------------------------------------------------------|
C|---------------------------------------------------------------| x4
G|---------------------------------------------------------------|
C|----0h2--2--2--2-5p2--2--2--2--0h2--2--2--2--4p2--2--2--2------|


[Pre-Chorus]

D|---10----9-----|
A|---10----10----|
F|---12----12----|
C|---------------|
G|---------------|
C|---------------|


[Chorus]

D|-----------------------------------------------------------|
A|-----------------------------------------------------------|
F|-----------------------------------------------------------|
C|--12/14--14--14--14-12--12-12-12--5-5--5--5--5-7--7-7-7----| x4
G|--12/14--14--14--14-12--12-12-12--5-5--5--5--5-7--7-7-7----|
C|--12/14--14--14--14-12--12-12-12--5-5--5--5--5-7--7-7-7----|


[Hook]

D|---------------------------------------------------------|
A|---------------------------------------------------------|
F|---------------------------------------------------------|
C|-------------------------2--------------------------2----|
G|---------------------------------------------------------|
C|--0h7-7--5-5--2--0-2--2-----2---0-2-2--0-2--0-2--2----2--|

D|---------------------------------------------------------|
A|---------------------------------------------------------|
F|---------------------------------------------------------|
C|-------------------------2--------------------------2----|
G|---------------------------------------------------------|
C|--0h7-7--5-5--2--0-2--2-----2---0-2-2--0-2--0-2--2-------|

(Play this bar twice)
D|---------------------------------------------------------------------|
A|---------------------------------------------------------------------|
F|---------------------------------------------------------------------|
C|--------------------------2------------2----------------14-----------|
G|---------------------------------------------------------------------|
C|--17h19-0-17-0-14--0-2--2---2--0-2--2----2---14-17-14p0----17-14h17--|


[Verse]
                                  *(Start here first time through)
D|---------------------------------------------------------------|
A|---------------------------------------------------------------|
F|---------------------------------------------------------------|
C|---------------------------------------------------------------| x4
G|-------------------------------*-------------------------------|
C|----0h2--2--2--2-5p2--2--2--2--0h2--2--2--2--4p2--2--2--2------|


[Chorus]

D|-----------------------------------------------------------|
A|-----------------------------------------------------------|
F|-----------------------------------------------------------|
C|--12/14--14--14--14-12--12-12-12--5-5--5--5--5-7--7-7-7----| x4
G|--12/14--14--14--14-12--12-12-12--5-5--5--5--5-7--7-7-7----|
C|--12/14--14--14--14-12--12-12-12--5-5--5--5--5-7--7-7-7----|


[Bridge] (Synth Only)


[Build Up]

D|---------------------------------------------------|
A|---------------------------------------------------|
F|---------------------------------------------------|
C|---------------------------------------------------| x2
G|---------------------------------------------------|
C|--12/14--14-14--12-12-12-12---5-5-5-5---7-7-7-7----|


[Chorus]

D|-----------------------------------------------------------|
A|-----------------------------------------------------------|
F|-----------------------------------------------------------|
C|--12/14--14--14--14-12--12-12-12--5-5--5--5--5-7--7-7-7----| x4
G|--12/14--14--14--14-12--12-12-12--5-5--5--5--5-7--7-7-7----|
C|--12/14--14--14--14-12--12-12-12--5-5--5--5--5-7--7-7-7----|


[Outro]

D|---------------------------------------------------------|
A|---------------------------------------------------------|
F|---------------------------------------------------------|
C|-------------------------2--------------------------2----|
G|---------------------------------------------------------|
C|--0h7-7--5-5--2--0-2--2-----2---0-2-2--0-2--0-2--2----2--|

D|---------------------------------------------------------|
A|---------------------------------------------------------|
F|---------------------------------------------------------|
C|-------------------------2--------------------------2----|
G|---------------------------------------------------------|
C|--0h7-7--5-5--2--0-2--2-----2---0-2-2--0-2--0-2--2-------|

D|---------------------------------------------------------------------|
A|---------------------------------------------------------------------|
F|---------------------------------------------------------------------|
C|--------------------------2------------2----------------14-----------|
G|---------------------------------------------------------------------|
C|--17h19-0-17-0-14--0-2--2---2--0-2--2----2---14-17-14p0----17-14h17--|

D|-------------------------------------------------------------|
A|-------------------------------------------------------------|
F|-------------------------------------------------------------|
C|--------------------------2------------2-------------2-------|
G|-------------------------------------------------------------|
C|--17h19-0-17-0-14--0-2--2---2--0-2--2----2---0-2--2-----2-2--|


            
Submit corrections


        Mantra lessons Hard to play? Try these video lessons and learn fast Mantra lessons
        
↑ Back to top | Tablatures and chords for acoustic guitar and electric guitar, ukulele, drums are parodies/interpretations of the original songs. You may use it for private study, scholarship, research or language learning purposes only