» » »

Bring Me The Horizon - In The Dark Tabs

Artists:  A B C D E F G H I J K L M N O P Q R S T U V W X Y Z # 

In The Dark Tabs

(ver. 1) Click to play this song!
Bring Me The Horizon
 Rating:
4.3/5 (19 votes)

 In The Dark lessons Tabs too difficult? Try these video lessons and learn fast
 
                [Verse]
"Ooh, I've done it again"
d|--------------------|---------------------------------------------|
A|--------------------|---------------------------------------------|
F|--------------------|---------------------------------------------|
C|--------------------|---------------------------------------------|
G|--------------------|---------------------------------------------|
D|-4---4-4--2---2--2--|--9---9-9--0---0--0--------------------------| x2

"But I'm looking on the bright side now"
d|-------11----------9-----------|-------4-----------7-------------|
A|-------12----------11----------|-------5-----------9-------------|
F|-----13----------11------------|-----6-----------9---------------|
C|---13----------11--------------|---6-----------9-----------------|
G|-11----------/9----------------|-4----------/7-------------------|
D|-------------------------------|---------------------------------| x2

[Chorus]
"So don't swear to God, He never asked you"
d|-------11----------9------------|-------7-----------4--------------|
A|-------12----------11-----------|-------9-----------5--------------|
F|-----13----------11-------------|-----9-----------6-----9-8--------|
C|---13----------11---------------|---9-----------6-----------11-9---|
G|-11----------/9-----------------|-7----------/4--------------------|
D|--------------------------------|----------------------------------|

"It's not His world you turned inside out"
d|-------11----------9------------|-------7-----------4--------------|
A|-------12----------11-----------|-------9-----------5--------------|
F|-----13----------11----9-8------|-----9-----------6-----9-8--------|
C|---13----------11----------11-9-|---9-----------6-----------11-9---|
G|-11----------/9-----------------|-7----------/4--------------------|
D|--------------------------------|----------------------------------|

"Jesus Christ, you're so damn cold"
d|-11--11-------9---9-------------|-4--4--------7--7-----------------|
A|-12--12-------11--11------------|-5--5--------9--9-----------------|
F|-13--13-------11--11------------|-6--6--------9--9-----------------|
C|-13--13-------11--11------------|-6--6--------9--9-----------------|
G|-11--11-------9---9-------------|-4--4--------7--7-----------------|
D|--------------------------------|----------------------------------|

"Forget about the things you think I know"
d|-------11----------9------------|-------4-----------7--------------|
A|-------12----------11-----------|-------5-----------9--------------|
F|-----13----------11----9-8------|-----6-----------9----------------|
C|---13----------11----------11-9-|---6-----------9------------------|
G|-11----------/9-----------------|-4----------/7--------------------|
D|--------------------------------|----------------------------------|

[Breakdown]
"In the dark"
d|--------------------------|-----------------------------------------|
A|--------------------------|-----------------------------------------|
F|--------------------------|-----------------------------------------|
C|--------------------------|-----------------------------------------|
G|---------4----------------|-----------------------------------------|
D|--4--7-4---2-4------------|-0--0-7-9-0---0-0---/9--9-7--------------|

d|--------------------------|-----------------------------------------|
A|--------------------------|-----------------------------------------|
F|--------------------------|-----------------------------------------|
C|--------------------------|-----------------------------------------|
G|---------4--------7-6-4-6-|-----------------------------------------|
D|--4--7-4---2-4------------|-0--0-7-9-0---0-0---/9--9-7--------------|

[Verse]
"Deathblow, look at you go" (drum break for first half)

"Well I'm looking on the bright side now"
d|-------11----------9------------|-------4-----------7--------------|
A|-------12----------11-----------|-------5-----------9--------------|
F|-----13----------11-------------|-----6-----------9----------------|
C|---13----------11---------------|---6-----------9------------------|
G|-11----------/9-----------------|-4----------/7--------------------|
D|--------------------------------|----------------------12-11-9-11--|

"You can give the act up now"
d|-------11----------9------------|-------4-----------7--------------|
A|-------12----------11-----------|-------5-----------9--------------|
F|-----13----------11-------------|-----6-----------9----------------|
C|---13----------11---------------|---6-----------9------------------|
G|-11----------/9-----------------|-4----------/7--------------------|
D|--------------------------------|----------------------------------|

[Chorus]
"So don't swear to God, He never asked you"
d|-------11----------9------------|-------7-----------4--------------|
A|-------12----------11-----------|-------9-----------5--------------|
F|-----13----------11-------------|-----9-----------6-----9-8--------|
C|---13----------11---------------|---9-----------6-----------11-9---|
G|-11----------/9-----------------|-7----------/4--------------------|
D|--------------------------------|----------------------------------|

"It's not His world you turned inside out"
d|-------11----------9------------|-------7-----------4--------------|
A|-------12----------11-----------|-------9-----------5--------------|
F|-----13----------11----9-8------|-----9-----------6-----9-8--------|
C|---13----------11----------11-9-|---9-----------6-----------11-9---|
G|-11----------/9-----------------|-7----------/4--------------------|
D|--------------------------------|----------------------------------|

"Jesus Christ, you're so damn cold"
d|-11--11-------9---9-------------|-4--4--------7--7-----------------|
A|-12--12-------11--11------------|-5--5--------9--9-----------------|
F|-13--13-------11--11------------|-6--6--------9--9-----------------|
C|-13--13-------11--11------------|-6--6--------9--9-----------------|
G|-11--11-------9---9-------------|-4--4--------7--7-----------------|
D|--------------------------------|----------------------------------|

"Forget about the things you think I know"
d|-------11----------9------------|-------4-----------7--------------|
A|-------12----------11-----------|-------5-----------9--------------|
F|-----13----------11----9-8------|-----6-----------9----------------|
C|---13----------11----------11-9-|---6-----------9------------------|
G|-11----------/9-----------------|-4----------/7--------------------|
D|--------------------------------|----------------------------------|

[Breakdown] (x2)
"In the dark"
d|--------------------------|-----------------------------------------|
A|--------------------------|-----------------------------------------|
F|--------------------------|-----------------------------------------|
C|--------------------------|-----------------------------------------|
G|---------4----------------|-----------------------------------------|
D|--4--7-4---2-4------------|-0--0-7-9-0---0-0---/9--9-7--------------|

d|--------------------------|-----------------------------------------|
A|--------------------------|-----------------------------------------|
F|--------------------------|-----------------------------------------|
C|--------------------------|-----------------------------------------|
G|---------4--------7-6-4-6-|-----------------------------------------|
D|--4--7-4---2-4------------|-0--0-7-9-0---0-0---/9--9-7--------------|

[Bridge]
"I'm not looking for salvation" (synth & bass break) (two rounds)

"I'm not looking for salvation (Oh, no' cause it's all come caving in)"
d|--11-----9----|---14--------|--11-----9----|---14-----------------|
A|--12-----11---|---16--------|--12-----11---|---16-----------------|
F|--13-----11---|---16--------|--13-----11---|---16-----------------|
C|--13-----11---|---16--------|--13-----11---|---16-----------------|
G|--------------|-------------|--------------|----------------------|
D|--------------|-------------|--------------|----------------------|
(This part is hard to hear. Listen to the song at about 2:40. I also recommend using upstrokes)

[Chorus]
"Don't swear to God, he never asked you"
(Nothing this first chorus, just drum, bass, and synth)

[Chorus]
"(In the dark) Don't swear to God, he never asked you"
d|-------11----------9------------|-------7-----------4--------------|
A|-------12----------11-----------|-------9-----------5--------------|
F|-----13----------11-------------|-----9-----------6-----9-8--------|
C|---13----------11---------------|---9-----------6-----------11-9---|
G|-11----------/9-----------------|-7----------/4--------------------|
D|--------------------------------|----------------------------------|

"It's not His world you turned inside out"
d|-------11----------9------------|-------7-----------4--------------|
A|-------12----------11-----------|-------9-----------5--------------|
F|-----13----------11----9-8------|-----9-----------6-----9-8--------|
C|---13----------11----------11-9-|---9-----------6-----------11-9---|
G|-11----------/9-----------------|-7----------/4--------------------|
D|--------------------------------|----------------------------------|

"Jesus Christ, you're so damn cold"
d|-11--11-------9---9-------------|-4--4--------7--7-----------------|
A|-12--12-------11--11------------|-5--5--------9--9-----------------|
F|-13--13-------11--11------------|-6--6--------9--9-----------------|
C|-13--13-------11--11------------|-6--6--------9--9-----------------|
G|-11--11-------9---9-------------|-4--4--------7--7-----------------|
D|--------------------------------|----------------------------------|

"Forget about the things you think I know"
d|-------11----------9------------|-------4-----------7--------------|
A|-------12----------11-----------|-------5-----------9--------------|
F|-----13----------11----9-8------|-----6-----------9----9-8---------|
C|---13----------11----------11-9-|---6-----------9----------11-9----|
G|-11----------/9-----------------|-4----------/7--------------------|
D|--------------------------------|----------------------------------|

[Chorus]
"Don't swear to God, he never asked you"
d|-------11----------9------------|-------7-----------4--------------|
A|-------12----------11-----------|-------9-----------5--------------|
F|-----13----------11----9-8------|-----9-----------6----9-8---------|
C|---13----------11----------11-9-|---9-----------6----------11-9----|
G|-11----------/9-----------------|-7----------/4--------------------|
D|--------------------------------|----------------------------------|

"It's not His world you turned inside out"
d|-------11----------9------------|-------7-----------4--------------|
A|-------12----------11-----------|-------9-----------5--------------|
F|-----13----------11----9-8------|-----9-----------6-----9-8--------|
C|---13----------11----------11-9-|---9-----------6-----------11-9---|
G|-11----------/9-----------------|-7----------/4--------------------|
D|--------------------------------|----------------------------------|

"Jesus Christ, you're so damn cold"
d|-------------------|----------------------------------------------|
A|-------------------|----------------------------------------------|
F|-------------------|----------------------------------------------|
C|-------------------|----------------------------------------------|
G|-------------------|----------------------------------------------|
D|-4--------2--------|--9--------0----------------------------------|

"Forget about the things you think I know"
d|-------------------|----------------------------------------------|
A|-------------------|----------------------------------------------|
F|-------------------|----------------------------------------------|
C|-------------------|----------------------------------------------|
G|-------------------|----------------------------------------------|
D|-4--------2--------|--9--------0----------------------------------|

[Breakdown] (x2)
"In the dark"
d|--------------------------|-----------------------------------------|
A|--------------------------|-----------------------------------------|
F|--------------------------|-----------------------------------------|
C|--------------------------|-----------------------------------------|
G|---------4----------------|-----------------------------------------|
D|--4--7-4---2-4------------|-0--0-7-9-0---0-0---/9--9-7--------------|

d|--------------------------|-----------------------------------------|
A|--------------------------|-----------------------------------------|
F|--------------------------|-----------------------------------------|
C|--------------------------|-----------------------------------------|
G|---------4--------7-6-4-6-|-----------------------------------------|
D|--4--7-4---2-4------------|-0--0-7-9-0---0-0---/9--9-7--------------|

            
Submit corrections


        In The Dark lessons Hard to play? Try these video lessons and learn fast In The Dark lessons
        
↑ Back to top | Tablatures and chords for acoustic guitar and electric guitar, ukulele, drums are parodies/interpretations of the original songs. You may use it for private study, scholarship, research or language learning purposes only