» » »

Bring Me The Horizon - I Dont Know What To Say Tabs

Artists:  A B C D E F G H I J K L M N O P Q R S T U V W X Y Z # 

I Dont Know What To Say Tabs

(ver. 1) Click to play this song!
Bring Me The Horizon
 Rating:
4.4/5 (5 votes)

 I Dont Know What To Say lessons Tabs too difficult? Try these video lessons and learn fast
 
                [Verse] (strummed on acoustic)

Eb|--0---0--0------------0--0--0--------------0---|
Bb|--0---0--0------------0--0--0--------------0---|
Gb|--13--9--6------------8--4--9--------------11--|
Db|--13--9--6------------8--4--9--------------11--|   x8
Ab|--11--7--4------------6--2--7--------------9---|
Eb|----------------------------0------------------|


[Pre-Chorus] (No Guitar)

A doppelganger with a broken scar...


[Chorus] (Distorted Electric)

When you know it has to end...

Eb|------------------------------------|
Bb|------------------------------------|
Gb|--13--9--6------------8--4----------|
Db|--13--9--6------------8--4--2-------|   x4
Ab|--11--7--4------------6--2--2-------|
Eb|----------------------------0-------|


[Break] (Piano and strings, no guitar)

How a flower in the rain only grows more when its grey...


[Solo] (Played really, really messily)

Well I don't know what to sayyyyyyy

Eb|--------------------------------------------------------------------------|
Bb|-11(x16)--/7-7-7-7-7b8b7-7-7-7-x/\----------------------------------------|
Gb|-------------------------------x/\-/6-6-6-6-x-x---------------------------|
Db|-------------------------------x/\-------------8-8-8-8-8-8b-8b-8b-8b-8-8--|
Ab|--------------------------------------------------------------------------|
Eb|--------------------------------------------------------------------------|


Eb|--------------------------------------------------------------------------------------------|
Bb|--4-4-4-4-4-4--------8------8b9--8b9-9-9-9-9----------------------------------------6-------|
Gb|--4-4-4-4-4-4----------------------------------x-x-/6-6-6-6-6b7b6-6-6-6-6-6-6-6-6-4---4-4b--|
Db|--6-6-6-6-6-6--6-6-6---6-6------------------------------------------------------------------|
Ab|--------------------------------------------------------------------------------------------|
Eb|--------------------------------------------------------------------------------------------|

             (Repeat this section only)
Eb|-----------------------------------------------------------|
Bb|---------------------------------------------6-6b7---------|
Gb|--6-6-6-4--6-4--6-6-6-6-4-6-6-6-4-6-4-4--6-6--------4h6-4--|
Db|-----------------------------------------------------------|    x2
Ab|-----------------------------------------------------------|
Eb|-----------------------------------------------------------|

Eb|---------------------------------------------------------------------------------------------------------|
Bb|---------------------------------------------6-6b7----------------6b7-6b7-7-7-----------------4-4-4-4-4--|
Gb|--6-6-6-4--6-4--6-6-6-6-4-6-6-6-4-6-4-4--6-6---------4-4-6-4--6-4-------------3b4-4-4-4-4-4-4-4-4-4-4-4--|
Db|---------------------------------------------------------------------------------------------------------|
Ab|---------------------------------------------------------------------------------------------------------|
Eb|---------------------------------------------------------------------------------------------------------|

            
Submit corrections


        I Dont Know What To Say lessons Hard to play? Try these video lessons and learn fast I Dont Know What To Say lessons
        
↑ Back to top | Tablatures and chords for acoustic guitar and electric guitar, ukulele, drums are parodies/interpretations of the original songs. You may use it for private study, scholarship, research or language learning purposes only