» » »

Bring Me The Horizon - Football Season Is Over Tabs

Artists:  A B C D E F G H I J K L M N O P Q R S T U V W X Y Z # 

Football Season Is Over Tabs

(ver. 1) Click to play this song!
Bring Me The Horizon
 Rating:
4/5 (4 votes)

 Football Season Is Over lessons Tabs too difficult? Try these video lessons and learn fast
 
                Transcribe by Badboysexbites I know some bits r wrong
correct it if u wanna so I can play it too


Gtr 1 - Tuning Drop G


         * - PALM MUTE


 Gtr 1:            Why the ....  can I not hail a taxi

|--------------------------------------------------------------|
|--------------------------------------------------------------|
|--6------3----------------------------------------------------|
|--4------1----------------------------------------------------|
|--------------------------------------------------------------|
|-------------------0--0--0--0----10--12-10-----0--0---0-------|

                   ar m  out     like a Nat  zi
|--------------------------------------------------------------|
|--------------------------------------------------------------|
|--------------------------------6----3---2---3----------------|
|--------------------------------4----1---0---1----------------|
|--------------------------------------------------------------|
|--13---15---13-----0----0-0-0---------------------------------|

   e v e r y      .   .    .     . !!!          driv in

|--------------------------------------------------------------|
|--------------------------------------------------------------|
|--------------------------------------------------------------|
|--------------------------------------------------------------|
|--------------------------------------------------------------|
|---0--0--0--0----10--12-10-----0--0---0------13--15--13---0---|


 g           p    a    s   t

|----------------------------------3----------------------------|
|----------------------------------3----------------------------|
|------------------------------3--------------------------------|
|------------------------------1--------------------------------|
|---------------------------------------------------------------|
|---10--0----10---12---10---0-----------------------------------|

 were the  ....    i  s         everyone       I  con
|----------------------------------------------------------------|
|----------------------------------------------------------------|
|----------------------------------------------------------------|
|----------------------------------------------------------------|
|----------------------------------------------------------------|
|-8--0--0--0--0----10--12-10-----0--0---0------13--15--13---0----|


  sered           a n y o n  e       I can't  see

|----------------------------------------------------------------|
|----------------------------------------------------------------|
|-----------------6----2---3---2---------------------------------|
|-----------------4----0---1---0---------------------------------|
|----------------------------------------------------------------|
|--0----0---0-------------------------0---0--0--0----10---12--10-|

   a n  y         thing

|-----------------3----------------------------------------------|
|-----------------3----------------------------------------------|
|-------------------------6-----------3--------------------------|
|-------------------------4-----------1--------------------------|
|----------------------------------------------------------------|
|--0---0-0--0----------------------------------------------------|


The hardest part of to      day         is   a       hang over

|---------------------------------------------------------------------|
|--------------------------------------------------------8--6---------|
|------------3----------------------------------3--6-----------7--6---|
|------------1--------------------------3---6-------------------------|
|---------------------------------------------------------------------|
|--0-0-0--0---------------0---0---0---0-------------------------------|


    empty           bottles    and empty promises

|---------------------------------------------3----------------------|
|---------------------------------------------3----------------------|
|-------------------6-6----3-3--------------3------------------------|
|-------------------4-4----1-1--------------1------------------------|
|--------------------------------------------------------------------|
|--0--0---0----0----------------0--0--0-0----------------------------|


The hardest part of to      day         is   a       hang over

|---------------------------------------------------------------------|
|--------------------------------------------------------8--6---------|
|------------3----------------------------------3--6-----------7--6---|
|------------1--------------------------3---6-------------------------|
|---------------------------------------------------------------------|
|--0-0-0--0---------------0---0---0---0-------------------------------|


  I've  got          every     person I  need

|-------------------------------------------------------------------|
|-------------------------------------------------------------------|
|-------------------6-6---3-3---------------------------------------|
|-------------------4-4---1-1-------------15------------------------|
|-----------------------------------------13------------------------|
|--0--0---0----0----------------0--0--0-0---------------------------|

     and its gonna be  one hell of a   messy   night

|-----------------------------------------------------------------|
|------------------------------------------------------8--6-------|
|---------------------------------------------3--6-----------7--6-|
|------------------------------------3---6------------------------|
|-----------------------------------------------------------------|
|-0-0----0-0-0-0---0--0--0--0--0--0-------------------------------|


 I   cant           remember            last  night

|-----------------------------------------------------------------|
|------------------------------------------------------8--6-------|
|---------------------------------------------3--6-----------7--6-|
|------------------------------------3---6------------------------|
|-----------------------------------------------------------------|
|-0-0----0-0-0-0---0--0--0--0--0--0-------------------------------|

   I cant remember                 anything

|-----------------------------------3------------------------------|
|---------------------------------------3--------------------------|
|------------------------------3-----------------------------------|
|------------------------------1-----------------------------------|
|------------------------------------------------------------------|
|-0-0----0-0-0-0---0--0--0--0--------------------------------------|

 I  can't           remember           last  night

|-----------------------------------------------------------------|
|------------------------------------------------------8--6-------|
|---------------------------------------------3--6-----------7--6-|
|------------------------------------3---6------------------------|
|-----------------------------------------------------------------|
|-0-0----0-0-0-0---0--0--0--0--0--0-------------------------------|


 I   can't     remember      any thing          turn this .. .. up

|-----------------------------------3-------------------------3----|
|---------------------------------------3---------------------3----|
|------------------------------3--------------------------3---3----|
|------------------------------1----------------15--14----1---1----|
|-----------------------------------------------13--12-------------|
|-0-0----0-0-0-0---0--0--0--0--------------------------------------|

  Party till you pass out  drink till your dead

1st Guitar

|------------------------------------------------------------------|
|------------------------------------------------------------------|
|-----------------------------------------------6--6--6------------|
|-----------------------------------------------4--4--4------------|
|------------------------------------------------------------------|
|--0--0---0---0--0--0---0---0--0--0--0--0-0------------------------|
|  *  *   *   *  *  *   *   *  *  *  *  * *
|2nd Guitar
|------------------------------------------------------------------|
|------------------------------------------------------------------|
|-----------------------------------------------6--6--6------------|
|-----------------------------------------------4--4--4------------|
|------------------------------------------------------------------|
|------------------------------------------------------------------|


  Dance all night till you can't    feel your legs

1st Guitar
|-----------------------------------------------------------------|
|-----------------------------------------------------------------|
|-------------------------------------3--3--3--3------------------|
|-------------------------------------1--1--1--1------------------|
|-----------------------------------------------------------------|
|--0--0---0---0--0--0---0---0--0--0-------------------------------|
|  *  *   *   *  *  *   *   *  *  *
|2nd Guitar
|------------------------------------------------------------------|
|------------------------------------------------------------------|
|--------------------------------------3--3--3--3------------------|
|--------------------------------------1--1--1--1------------------|
|------------------------------------------------------------------|
|------------------------------------------------------------------|


party till you pass out drink till ur dead            dance all
                                                      .....  Night

1st Guitar
|-------------------------------------------------------------3-3-|
|-------------------------------------------------------------3-3-|
|-------------------------------------------6--6--6----3-3-3--3-3-|
|-------------------------------------------4--4--4----1-1-1--1-1-|
|-----------------------------------------------------------------|
|--0--0---0---0--0--0---0---0--0--0--0--0-0-----------------------|
|  *  *   *   *  *  *   *   *  *  *  *  * *
|2nd Guitar
|--------------------------------------------------------------3-3-|
|--------------------------------------------------------------3-3-|
|-------------------------------------------6--6--6-----3-3-3--3-3-|
|-------------------------------------------4--4--4-----1-1-1--1-1-|
|------------------------------------------------------------------|
|------------------------------------------------------------------|


Party  till u pass out   drink till your dead
|-----------------------------------------------------------------|
|-----------------------------------------------------------------|
|------let---------let-----------------------6--6--6--6-----------|
|------ring--------ring----------------------4--4--4--4-----------|
|-----------------------------------------------------------------|
|-0-0---------0-0---------0-0-0-0-0-0-0-0-0-----------------------|
  *           *

Dance all night          till u cant feel ur legs !!!
|-----------------------------------------------------------------|
|-----------------------------------------------------------------|
|------let---------let-----------------------3--3--3--3-----------|
|------ring--------ring----------------------1--1--1--1-----------|
|-----------------------------------------------------------------|
|-0-0---------0-0---------0-0-0-0-0-0-0-0-0-----------------------|
  *           *

Party  till u pass out   drink till your dead

|-----------------------------------------------------------------|
|-----------------------------------------------------------------|
|------let---------let-----------------------6--6--6--6-----------|
|------ring--------ring----------------------4--4--4--4-----------|
|-----------------------------------------------------------------|
|-0-0---------0-0---------0-0-0-0-0-0-0-0-0-----------------------|
  *           *

Dance all   ......         n   i   g  h   t

|-----------------------------------------------------------------|
|-----------------------------------------------------------------|
|------let---------let-----------------------3--3--3--3-----------|
|------ring--------ring----------------------1--1--1--1-----------|
|-----------------------------------------------------------------|
|-0-0---------0-0---------0-0-0-0-0-0-0-0-0-----------------------|
  *           *
 o           ....

|-----------------------------------------------------------------|
|-----------------------------------------------------------------|
|--------------------------------------------6--6--6--6-----------|
|--------------------------------------------4--4--4--4-----------|
|-----------------------------------------------------------------|
|-0-0---------0-0---------0-0-0-0-0-0-0-0-0-----------------------|
  * *         * *         * * * * * * * * *

|-----------------------------------------------------------------|
|-----------------------------------------------------------------|
|--------------------------------------------3--3--3--3-----------|
|--------------------------------------------1--1--1--1-----------|
|-----------------------------------------------------------------|
|-0-0---------0-0---------0-0-0-0-0-0-0-0-0-----------------------|
  * *         * *         * * * * * * * * *


1St guitar
|-----------------------------------------------------------------|
|-----------------------------------------------------------------|
|--------------------------------------------6--6--6--6-----------|
|--------------------------------------------4--4--4--4-----------|
|-----------------------------------------------------------------|
|-0-0---------0-0---------0-0-0-0-0-0-0-0-0-----------------------|
| * *         * *         * * * * * * * * *
| 2nd Guitar
|-----------------------------------------------------------------|
|-----------------------------------------------------------------|
|--------------------------------------------6--6--6--6-----------|
|--------------------------------------------4--4--4--4-----------|
|-----------------------------------------------------------------|
|-0-0--0000---0-0--0000----0-0-0-0-0-0-0-0-0----------------------|
  * *  ****   * *  ****    * * * * * * * * *

                                                                 We are done

1St guitar
|-----------------------------------------------------------------|
|-----------------------------------------------------------------|
|--------------------------------------------3--3--3--3-----2-----|
|--------------------------------------------1--1--1--1-----0-----|
|-----------------------------------------------------------------|
|-0-0---------0-0---------0-0-0-0-0-0-0-0-0-----------------------|
| * *         * *         * * * * * * * * *
| 2nd Guitar
|-----------------------------------------------------------------|
|-----------------------------------------------------------------|
|--------------------------------------------3--3--3--3-----2-----|
|--------------------------------------------1--1--1--1-----0-----|
|-----------------------------------------------------------------|
|-0-0--0000---0-0--0000----0-0-0-0-0-0-0-0-0----------------------|
  * *  ****   * *  ****    * * * * * * * * *


           with giving a  .....

|-----------------------------------------------------------------|
|-----------------------------------------------------------------|
|--3--3--3--3---3-----------2-------------------------------------|
|--1--1--1--1---1-----------0-------------------------------------|
|-----------------------------------------------------------------|
|-----------------------------------------------------------------|

Yeah  o alright   get p**sed     I'm  so drunk   I can't even pee anymore
            
Submit corrections


        Football Season Is Over lessons Hard to play? Try these video lessons and learn fast Football Season Is Over lessons
        
↑ Back to top | Tablatures and chords for acoustic guitar and electric guitar, ukulele, drums are parodies/interpretations of the original songs. You may use it for private study, scholarship, research or language learning purposes only