» » »

Bring Me The Horizon - Doomed Tabs

Artists:  A B C D E F G H I J K L M N O P Q R S T U V W X Y Z # 

Doomed Tabs

(ver. 1) Click to play this song!
Bring Me The Horizon
 Rating:
4.3/5 (26 votes)

 Doomed  lessons Tabs too difficult? Try these video lessons and learn fast
 
                [Verse 1]

0.19 seconds - 1.11 
e|----------------------------------------------------------------------------------------|
B|---10--10--10-10-10-10---10--10--10-10-10-10---10--10--10-10-10-10---10-10-10-9-9-9-----|
G|----------------------------------------------------------------------------------------|
D|----------------------------------------------------------------------------------------|
A|----------------------------------------------------------------------------------------|
D|----------------------------------------------------------------------------------------|

e|----------------------------------------------------------------------------------------| 
B|---10--10--10-10-10-10---10--10--10-10-10-10---10--10--10-10-10-10----------------------|
G|--------------------------------------------------------------------9-------------------|
D|----------------------------------------------------------------------9----11-----------|
A|----------------------------------------------------------------------------------------|
D|----------------------------------------------------------------------------------------|

e|----------------------------------------------------------------------------------------|  
B|----------------------------------------------------------------------------------------|
G|--------------------------------------------------------------------9-------------------|
D|----------------------------------------------------------------------9----11-----------|
A|----------------------------------------------------------------------------------------|
D|----------------------------------------------------------------------------------------|

e|----------------------------------------------------------------------------------------|  
B|----------------------------------------------------------------------------------------|
G|--------------------------------------------------------------------9-------------------|
D|-------------------------------------------------------------------------9--------------|
A|----------------------------------------------------------------------------------------|
D|----------------------------------------------------------------------------------------|

e|----------------------------------------------------------------------------------------|
B|----------------------------------------------------------------------10-10-10-9-9-9----|
G|----------------------------------------------------------------------------------------|
D|---11--11--11-11-11-11---11--11--11-11-11-11---11--11--11-11-11-11----------------------|
A|----------------------------------------------------------------------------------------|
D|----------------------------------------------------------------------------------------|

e|----------------------------------------------------------------------------------------|
B|----------------------------------------------------------------------------------------|
G|---------------------------------------------------------------------9------------------|
D|---11--11--11-11-11-11---11--11--11-11-11-11---11--11--11-11-11-11-----9----11----------|
A|----------------------------------------------------------------------------------------|
D|----------------------------------------------------------------------------------------|

e|----------------------------------------------------------------------------------------|  
B|----------------------------------------------------------------------------------------|
G|--------------------------------------------------------------------9-------------------|
D|----------------------------------------------------------------------9----11-----------|
A|----------------------------------------------------------------------------------------|
D|----------------------------------------------------------------------------------------|

e|----------------------------------------------------------------------------------------|  
B|----------------------------------------------------------------------------------------|
G|--------------------------------------------------------------------9-------------------|
D|--------------------------------------------------------------------------9-------------|
A|----------------------------------------------------------------------------------------|
D|----------------------------------------------------------------------------------------|


[Chorus]

1.14 - 1.47
e|----------------------------------------------------------------------------------------|  
B|----------------------------------------------------------------------------------------| 
G|----------------------------------------------------------------------------------------|
D|--12---------0-12-11-9----0h9---0-0-2-2-4----------2----------4----0--------------------|
A|--12---------0-12-11-9----0h9---0-0-2-2-4----------2----------4----0--------------------|
D|--12---------0-12-11-9----0h9---0-0-2-2-4----------2----------4----0--------------------|

e|----------------------------------------------------------------------------------------|  
B|----------------------------------------------------------------------------------------| 
G|----------------------------------------------------------------------------------------|
D|-------------0-12-11-9----0h9---0-0-2-2-4----------2----------4----0--------------------|
A|-------------0-12-11-9----0h9---0-0-2-2-4----------2----------4----0--------------------|
D|-------------0-12-11-9----0h9---0-0-2-2-4----------2----------4----0--------------------|

e|----------------------------------------------------------------------------------------|  
B|----------------------------------------------------------------------------------------| 
G|----------------------------------------------------------------------------------------|
D|-------------0-12-11-9----0h9---0-0-2---------------------------------------------------|
A|-------------0-12-11-9----0h9---0-0-2---------------------------------------------------|
D|-------------0-12-11-9----0h9---0-0-2---------------------------------------------------|


[Verse 2]
 
2.00 - 2.25

e|----------------------------------------------------------------------------------------|
B|----------------------------------------------------------------------10-10-10-9-9-9----|
G|----------------------------------------------------------------------------------------|
D|---11--11--11-11-11-11---11--11--11-11-11-11---11--11--11-11-11-11----------------------|
A|----------------------------------------------------------------------------------------|
D|----------------------------------------------------------------------------------------|

e|----------------------------------------------------------------------------------------|
B|----------------------------------------------------------------------------------------|
G|---------------------------------------------------------------------9------------------|
D|---11--11--11-11-11-11---11--11--11-11-11-11---11--11--11-11-11-11-----9----11----------|
A|----------------------------------------------------------------------------------------|
D|----------------------------------------------------------------------------------------|

e|----------------------------------------------------------------------------------------|  
B|----------------------------------------------------------------------------------------|
G|--------------------------------------------------------------------9-------------------|
D|----------------------------------------------------------------------9----11-----------|
A|----------------------------------------------------------------------------------------|
D|----------------------------------------------------------------------------------------|

e|----------------------------------------------------------------------------------------|  
B|----------------------------------------------------------------------------------------|
G|--------------------------------------------------------------------9-------------------|
D|--------------------------------------------------------------------------9-------------|
A|----------------------------------------------------------------------------------------|
D|----------------------------------------------------------------------------------------|


[Bridge]

2.26 - 2-52

e|--------------------------------------------------------------------------------------|  
B|-------12-14----------12-14---------12-14-----------12-14----------12-14-------12-14--|
G|---11-------------11------------11------------9/11-------------11-----------11--------|
D|--------------------------------------------------------------------------------------|
A|--------------------------------------------------------------------------------------|
D|--------------------------------------------------------------------------------------|

e|-------------------12-10-9----12-10-9----|  
B|------12-14------------------------------|
G|---11-----------9------------------------|
D|-----------------------------------------|
A|-----------------------------------------|
D|-----------------------------------------|

e|-------------------------------------------------12-10-9----12-10-9---------------------------------|  
B|-------12-14----------12-14---------12-14-----------------------------------12-14----------12-14----|
G|---11-------------11------------11--------------------------------------11------------9/11----------|  
D|----------------------------------------------------------------------------------------------------|
A|----------------------------------------------------------------------------------------------------|
D|----------------------------------------------------------------------------------------------------|


[Break/Chorus]

2.53 - 4.17
e|----------------------------------------------------------------------------------------|  
B|----------------------------------------------------------------------------------------| 
G|----------------------------------------------------------------------------------------|
D|----------------------------------------------------------------------------------------|
A|----------------------------------------------------------------------------------------|
D|---0---------0-12-11-9----0h9---0-0-2-2-4----------2----------4----0--------------------|

e|----------------------------------------------------------------------------------------|  
B|----------------------------------------------------------------------------------------| 
G|----------------------------------------------------------------------------------------|
D|-------------------------------------------------------------------0--------------------|
A|-------------------------------------------------------------------0--------------------|
D|-------------0-12-11-9----0h9---0-0-2-2-4----------2----------4----0--------------------|

e|----------------------------------------------------------------------------------------|  
B|----------------------------------------------------------------------------------------| 
G|----------------------------------------------------------------------------------------|
D|-------------0-12-11-9----0h9---0-0-2-2-4----------2----------4----0--------------------| x4  
A|-------------0-12-11-9----0h9---0-0-2-2-4----------2----------4----0--------------------|
D|-------------0-12-11-9----0h9---0-0-2-2-4----------2----------4----0--------------------| 

e|----------------------------------------------------------------------------------------|  
B|----------------------------------------------------------------------------------------| 
G|----------------------------------------------------------------------------------------|
D|-------------0-12-11-9----0h9---0-0-2---------------------------------------------------|
A|-------------0-12-11-9----0h9---0-0-2---------------------------------------------------|
D|-------------0-12-11-9----0h9---0-0-2---------------------------------------------------|


At 3.18 there is a lead guitar over the chorus that goes like this

e|--------------------|  
B|------------12------|
G|---11-13-14---------|
D|--------------------| x12  till 3.45
A|--------------------|
D|--------------------|


e|-------------------|  
B|-------12-14-------| x16  
G|---11--------------|
D|-------------------|
A|-------------------|
D|-------------------|

And end with (on 4.16 minutes)

e|----12-10-9--------|  
B|-------------------| 
G|-------------------|
D|-------------------|
A|-------------------|
D|-------------------|            
Submit corrections


        Doomed  lessons Hard to play? Try these video lessons and learn fast Doomed  lessons
        
↑ Back to top | Tablatures and chords for acoustic guitar and electric guitar, ukulele, drums are parodies/interpretations of the original songs. You may use it for private study, scholarship, research or language learning purposes only