» » »

Bring Me The Horizon - Chasing Rainbows Tabs

Artists:  A B C D E F G H I J K L M N O P Q R S T U V W X Y Z # 

Chasing Rainbows Tabs

(ver. 1) Click to play this song!
Bring Me The Horizon
 Rating:
4/5 (4 votes)

 Chasing Rainbows lessons Tabs too difficult? Try these video lessons and learn fast
 
                Tuning: Drop D

INTRO 

e|---------------------------------------------------------------------------|
B|---------------------------------------------------------------------------|
G|-----------12-12-12---12/15-15-15-15-15-15-10-10-10-10-10-10-10------------|
D|-8h10(x4)------------------------------------------------------------------|
A|---------------------------------------------------------------------------|
D|---------------------------------------------------------------------------|

e|---------------------------------------------------------------------------|
B|----------------------------------------------------13b--------------------|
G|-----------12-12-12---12/15-15-15-15-15-15-10-10-10------------------------|
D|-8h10(x4)------------------------------------------------------------------|
A|---------------------------------------------------------------------------|
D|---------------------------------------------------------------------------|

VERSE 1:

e|---------------------------------------------------------------------------|-
B|---------------------------------------------------------------------------| |
G|-----8--7 (let )-----------8--7 (let )---------8--7 (let )-10(only --------| | x2
D|--10----10(ring)--------10----10(ring)------------10(ring)--- first time)--| |
A|--------------------------------------------11-----------------------------| |
D|---------------------------------------------------------------------------|-

PRE-CHORUS 1

e|---------------------------------------------------------------------------|
B|---------------------------------------------------------------------------|
G|---------------------------------------------------------------------------|
D|-6-6-6-6-6-6-6-6-8-8-8-8-8-8-1-1-3-3-3-3-3-3-3-3-6-6-6-6-6-6---------------|
A|-6-6-6-6-6-6-6-6-8-8-8-8-8-8-1-1-3-3-3-3-3-3-3-3-6-6-6-6-6-6---------------|
D|-6-6-6-6-6-6-6-6-8-8-8-8-8-8-1-1-3-3-3-3-3-3-3-3-6-6-6-6-6-6---------------|

CHORUS (lead)

e|---------------------------------------------------------------------------|
B|---------------------------------------------------------------------------|
G|-----------12-12-12---12/15-15-15-15-15-15-10-10-10-10-10-10-10------------|
D|-8h10(x4)------------------------------------------------------------------|
A|---------------------------------------------------------------------------|
D|---------------------------------------------------------------------------|

e|---------------------------------------------------------------------------|
B|----------------------------------------------------13b--------------------|
G|-----------12-12-12---12/15-15-15-15-15-15-10-10-10------------------------|
D|-8h10(x4)------------------------------------------------------------------|
A|---------------------------------------------------------------------------|
D|---------------------------------------------------------------------------|

e|---------------------------------------------------------------------------|
B|-11h13(x4)--16-16-16---8h11(x2)-11h13-6h8-3h4p3----------------------------|
G|---------------------------------------------------------------------------|
D|---------------------------------------------------------------------------|
A|---------------------------------------------------------------------------|
D|---------------------------------------------------------------------------|

e|---------------------------------------------------------------------------|
B|-11h13(x4)--16-16-16---8h11(x2)-11h13-6h8-3b-------------------------------|
G|---------------------------------------------------------------------------|
D|---------------------------------------------------------------------------|
A|---------------------------------------------------------------------------|
D|---------------------------------------------------------------------------|

CHORUS (rhythm)

e|---------------------------------------------------------------------------|-
B|---------------------------------------------------------------------------| |
G|---------------------------------------------------------------------------| | x4
D|-10-10-10-10-10-10-10-10-6-6-6-6-3-3-3-3-----------------------------------| |
A|-10-10-10-10-10-10-10-10-6-6-6-6-3-3-3-3-----------------------------------| |
D|-10-10-10-10-10-10-10-10-6-6-6-6-3-3-3-3-----------------------------------|-

VERSE 2

e|---------------------------------------------------------------------------|-
B|-------8--------6--------4-------------------------------------------------| |
G|----------------------------------7----------------------------------------| | x2
D|----10--------5--------5--------5------------------------------------------| |
A|-10---------3--------3--------3--------------------------------------------| |
D|---------------------------------------------------------------------------|-

PRE-CHORUS 2 (Twice the whole thing)

e|---------------------------------------------------------------------------|
B|---------------------------------------------------------------------------| 
G|-12-12-12------------------------------------------------------------------|  
D|----------12-12-12-13-13-13-10-10-10-10-10-10------------------------------| 
A|---------------------------------------------------------------------------| 
D|---------------------------------------------------------------------------|

e|---------------------------------------------------------------------------|
B|---------------------------------------------------------------------------| 
G|-12-12-12----------------------------10-10-10------------------------------|  
D|----------12-12-12-13-13-13-10-10-10---------------------------------------| 
A|---------------------------------------------------------------------------| 
D|---------------------------------------------------------------------------|

e|---------------------------------------------------------------------------|
B|---------------------------------------------------------------------------| 
G|-12-12-12------------------------------------------------------------------|  
D|----------12-12-12-13-13-13-10-10-10-10-10-10------------------------------| 
A|---------------------------------------------------------------------------| 
D|---------------------------------------------------------------------------|

e|---------------------------------------------------------------------------|
B|---------------------------------------------------------------------------| 
G|-12-12-12------------------------------------------------------------------|  
D|----------12-12-12-13-13-13-10-10-10-8--10-10------------------------------| 
A|---------------------------------------------------------------------------| 
D|---------------------------------------------------------------------------|

* Second Time

e|---------------------------------------------------------------------------|
B|---------------------------------------------------------------------------| 
G|-12-12-12------------------------------------------------------------------|  
D|----------12-12-12-13 (delay)----------------------------------------------| 
A|---------------------------------------------------------------------------| 
D|---------------------------------------------------------------------------|

CHORUS

INTERLUDE 1

e|---------------------------------------------------------------------------|
B|---------------------------------------------------------------------------|
G|---------------------------------------------------------------------------|
D|-6--3--5-1--0-0-0-0-0-0-0-0-0-0-0-0-0-0-0-0-6-6-6-6-6-6-6-6-3-3-3-3-5-5-1-1|
A|-6--3--5-1--0-0-0-0-0-0-0-0-0-0-0-0-0-0-0-0-6-6-6-6-6-6-6-6-3-3-3-3-5-5-1-1|
D|-6--3--5-1--0-0-0-0-0-0-0-0-0-0-0-0-0-0-0-0-6-6-6-6-6-6-6-6-3-3-3-3-5-5-1-1|

e|---------------------------------------------------------------------------|
B|---------------------------------------------------------------------------|
G|---------------------------------------------------------------------------|
D|-0-0-0-0-0-0-0-0-0-0-0-0-0-0-0-0-0-0-0-0-0-0-0-0-0-0-0-0-0-0-0-0-----------|
A|-0-0-0-0-0-0-0-0-0-0-0-0-0-0-0-0-0-0-0-0-0-0-0-0-0-0-0-0-0-0-0-0-----------|
D|-0-0-0-0-0-0-0-0-0-0-0-0-0-0-0-0-0-0-0-0-0-0-0-0-0-0-0-0-0-0-0-0-----------|

INTERLUDE 2 (with delay)

e|---------------------------------------------------------------------------|-
B|---------------------------------------------------------------------------| | 
G|-8----10--7----------------------------------------------------------------| | x3 
D|---------------------------------------------------------------------------| | 
A|---------------11----------------------------------------------------------| | 
D|---------------------------------------------------------------------------|-

e|---------------------------------------------------------------------------|
B|---------------------------------------------------------------------------|  
G|-8----10--7----------------------------------------------------------------| 
D|---------------------------------------------------------------------------|  
A|---------------------------------------------------------------------------|  
D|---------------------------------------------------------------------------|

CHORUS

OUTRO (lead)

e|---------------------------------------------------------------------------|
B|-11h13(x4)--16-16-16---8h11(x2)-11h13-6h8p6--------------------------------|
G|---------------------------------------------------------------------------|
D|---------------------------------------------------------------------------|
A|---------------------------------------------------------------------------|
D|---------------------------------------------------------------------------|

e|---------------------------------------------------------------------------|
B|---------------------------------------------------------------------------| 
G|---------------------------------------------------------------------------| 
D|-10-10-10-10-10-10-10-10-6-6-6-6-3-3-3-------------------------------------| 
A|-10-10-10-10-10-10-10-10-6-6-6-6-3-3-3-------------------------------------| 
D|-10-10-10-10-10-10-10-10-6-6-6-6-3-3-3-------------------------------------|
            
Submit corrections


        Chasing Rainbows lessons Hard to play? Try these video lessons and learn fast Chasing Rainbows lessons
        
↑ Back to top | Tablatures and chords for acoustic guitar and electric guitar, ukulele, drums are parodies/interpretations of the original songs. You may use it for private study, scholarship, research or language learning purposes only