» » »

Bring Me The Horizon - Can You Feel My Heart Tabs

Artists:  A B C D E F G H I J K L M N O P Q R S T U V W X Y Z # 

Can You Feel My Heart Tabs

(ver. 1) Click to play this song!
Bring Me The Horizon
 Rating:
4.3/5 (24 votes)

 Can You Feel My Heart lessons Tabs too difficult? Try these video lessons and learn fast
 
                [Intro] (0:00 - 0:30)

Synth transcribed to tab

D|--9-9-9--12-10--9-9---9--12-10--9-9-9--12-10--9-9-----9---------9----------|
A|--------------------7-----------------------------7-7---7-7-7-7------------|
F|---------------------------------------------------------------------------|
C|---------------------------------------------------------------------------|  
G|---------------------------------------------------------------------------|
C|---------------------------------------------------------------------------|
 Guitar 1 (0:15 - 0:30) (Distortion):
D|---------------------------------------------------------------------------|
A|---------------------------------------------------------------------------|
F|--7----4-----------------4-------------------------------------------------|
C|--7----4----4-----7------4----0----4---------------------------------------|
G|--5----2----4-----7------2----0----4---------------------------------------|
C|-(0)--------4-----7-----------0----4---------------------------------------|


[Verse]
  
  Guitar 2 (0:31 - 0:45) (Clean):
D|--9---9---9---9---9---9---9---10-------------------------------------------|
A|----7---7---7---7---7---7---7----7-----------------------------------------|
F|---------------------------------------------------------------------------|
C|---------------------------------------------------------------------------|
G|---------------------------------------------------------------------------|
C|---------------------------------------------------------------------------|

D|--9---9---9---9---9---9---12---10------------------------------------------|
A|----7---7---7---7---7---7----7----7----------------------------------------|
F|---------------------------------------------------------------------------|
C|---------------------------------------------------------------------------|
G|---------------------------------------------------------------------------|
C|---------------------------------------------------------------------------|


[Chorus] (0:46 - 1:00)

Synth transcribed to tab

D|--9-9-9--12-10--9-9---9--12-10--9-9-9--12-10--9-9-----9---------9----------|
A|--------------------7-----------------------------7-7---7-7-7-7------------|
F|---------------------------------------------------------------------------|
C|---------------------------------------------------------------------------|  
G|---------------------------------------------------------------------------|
C|---------------------------------------------------------------------------|

D|--9-9-9--12-10--9-9---9--12-10--9-9-9--12-10-------------------------------|
A|--------------------7------------------------------------------------------|
F|---------------------------------------------------------------------------|
C|---------------------------------------------------------------------------|  
G|---------------------------------------------------------------------------|
C|---------------------------------------------------------------------------|

 Guitar 1 (Distortion):
D|---------------------------------------------------------------------------|
A|---------------------------------------------------------------------------|
F|--7----4-----------------4-------------------------------------------------|
C|--7----4----4-----7------4----0----4---------------------------------------|
G|--5----2----4-----7------2----0----4---------------------------------------|
C|-(0)--------4-----7-----------0----4---------------------------------------|

[Verse]

  Guitar 2 (1:01 - 1:30) (Clean):
D|--9---9---9---9---9---9---9---10-------------------------------------------|
A|----7---7---7---7---7---7---7----7-----------------------------------------|
F|---------------------------------------------------------------------------|
C|---------------------------------------------------------------------------|
G|---------------------------------------------------------------------------|
C|---------------------------------------------------------------------------|

D|--9---9---9---9---9---9---12---10------------------------------------------|
A|----7---7---7---7---7---7----7----7----------------------------------------|
F|---------------------------------------------------------------------------|
C|---------------------------------------------------------------------------|
G|---------------------------------------------------------------------------|
C|---------------------------------------------------------------------------|

 
  Guitar 3 (1:16 - 1:30) (Clean):
D|---------------------------------------------------------------------------|
A|---------------------------7-77-77-----------------------------------------|
F|----------2-4-4/6-4h2--------------6-7---4-4/6\4---------------------------|
C|--2-4---4-------------4---------------------------7\4----------------------|
G|---------------------------------------------------------------------------|
C|---------------------------------------------------------------------------|

[Chorus] (1:30 - 2:01)

Synth transcribed to tab

D|--9-9-9--12-10--9-9---9--12-10--9-9-9--12-10--9-9-----9---------9----------|
A|--------------------7-----------------------------7-7---7-7-7-7------------|
F|---------------------------------------------------------------------------|
C|---------------------------------------------------------------------------|  
G|---------------------------------------------------------------------------|
C|---------------------------------------------------------------------------|

D|--9-9-9--12-10--9-9---9--12-10--9-9-9--12-10-------------------------------|
A|--------------------7------------------------------------------------------|
F|---------------------------------------------------------------------------|
C|---------------------------------------------------------------------------|  
G|---------------------------------------------------------------------------|
C|---------------------------------------------------------------------------|

 Guitar 1 (Distortion):
D|---------------------------------------------------------------------------|
A|---------------------------------------------------------------------------|
F|--7----4-----------------4-------------------------------------------------|
C|--7----4----4-----7------4----0----4---------------------------------------|
G|--5----2----4-----7------2----0----4---------------------------------------|
C|-(0)--------4-----7-----------0----4---------------------------------------|

 [Bridge] (2:01 - 3:00)
  
  Guitar 2 (Clean):
D|----------9----------------------------------------------------------------|
A|--10---9-------7--9------x8--------------------------------------------------|
F|---------------------------------------------------------------------------|
C|---------------------------------------------------------------------------|
G|---------------------------------------------------------------------------|
C|---------------------------------------------------------------------------|

Synth transcribed to tab

  (3:01 - 3:04)
D|--9-9-9--12-10--9-9---9-9\-------------------------------------------------|
A|--------------------7------------------------------------------------------|
F|---------------------------------------------------------------------------|
C|---------------------------------------------------------------------------|
G|---------------------------------------------------------------------------|
C|---------------------------------------------------------------------------|

[Outro] (3:05 - 3:35)

  Guitar 1 (Distortion):
D|---------------------------------------------------------------------------|
A|---------------------------------------------------------------------------|
F|--7----4-----------------4-------------------------------------------------|
C|--7----4----4-----7------4----0----4--------x2-----------------------------|
G|--5----2----4-----7------2----0----4---------------------------------------|
C|-(0)--------4-----7-----------0----4---------------------------------------|
  
  Guitar 2 (3:05 - 3:35) (Distortion):
D|---------------------------------------------------------------------------|
A|--5---5---5---5---5---5---3---3---2----2---2---2---2---2---0---0-----------|
F|----2---2---2---2---2---2---2---2--------------------------------------x4--|
C|------------------------------------4---4----4---4---4---4---4---4---------|
G|---------------------------------------------------------------------------|
C|---------------------------------------------------------------------------|

Synth transcribed to tab

  (3:20 - 3:35)
D|--9-9-9--12-10--9-9---9--12-10--9-9-9--12-10--9-9-----9---------9----------|
A|--------------------7-----------------------------7-7---7-7-7-7------------|
F|---------------------------------------------------------------------x2----|
C|---------------------------------------------------------------------------|  
G|---------------------------------------------------------------------------|
C|---------------------------------------------------------------------------|

 (3:35 - 3:39)

D|--9-9-9--12-10--9-9-----9-9---------9-9\-----------------------------------|
A|--------------------7-7-----7-7-7-7----------------------------------------|
F|---------------------------------------------------------------------------|
C|---------------------------------------------------------------------------|  
G|---------------------------------------------------------------------------|
C|---------------------------------------------------------------------------|            
Submit corrections


        Can You Feel My Heart lessons Hard to play? Try these video lessons and learn fast Can You Feel My Heart lessons
        
↑ Back to top | Tablatures and chords for acoustic guitar and electric guitar, ukulele, drums are parodies/interpretations of the original songs. You may use it for private study, scholarship, research or language learning purposes only