» » »

Bring Me The Horizon - Blasphemy Tabs

Artists:  A B C D E F G H I J K L M N O P Q R S T U V W X Y Z # 

Blasphemy Tabs

(ver. 1) Click to play this song!
Bring Me The Horizon
 Rating:
4.3/5 (29 votes)

 Blasphemy  lessons Tabs too difficult? Try these video lessons and learn fast
 
                e|---------------------------------------------------------------------------|
B|---------9-------9/11----13(b)14(r)13--------------------------------------|
G|--6/10------10-----------------------------------6-------------------------|
D|---------------------------------------------------------------------------|
A|---------------------------------------------------------------------------|
E|---------------------------------------------------------------------------|

e|--6----------------------------------6/------------------------------------|
B|-------9-6---------------------------6/------------------------------------|
G|-------------8--6h8-8/10-8-6-----------------------------------------------|
D|---------------------------------------------------------------------------|
A|---------------------------------------------------------------------------|
E|---------------------------------------------------------------------------|

e|--6-------------------------------------------------------------------------|
B|-----9p6-----9p6------------------------------------------------------------|
G|----------8--------8-------------6------8/10---9----------------------------|
D|----------------------8-----6h8-----8--------------8------------------------|
A|----------------------------------------------------------------------------|
E|----------------------------------------------------------------------------|

e|--------------------------------9-11--11(b)13--14(b)16---11--13--9----------|
B|--11/13--9------9--------9h11----------------------------------------11-----|
G|------------10------8p6-----------------------------------------------------|
D|----------------------------------------------------------------------------|
A|----------------------------------------------------------------------------|
E|----------------------------------------------------------------------------|
            
Submit corrections


        Blasphemy  lessons Hard to play? Try these video lessons and learn fast Blasphemy  lessons
        
↑ Back to top | Tablatures and chords for acoustic guitar and electric guitar, ukulele, drums are parodies/interpretations of the original songs. You may use it for private study, scholarship, research or language learning purposes only