Home » B » Bring Me The Horizon »

Bring Me The Horizon - AmEN Tabs

Artists:  A B C D E F G H I J K L M N O P Q R S T U V W X Y Z # 

AmEN Tabs

(Version #1)
Bring Me The Horizon
Drop B, 105 BMP=105
 
[MAIN RIFF]
 
C#|-------------------|--------------------|--------------------|--------------------|
G#|-------------------|--------------------|--------------------|--------------------|
E |-------------------|--------------------|--------------------|--------------------|
B |-------------------|--------------------|--------------------|--------------------|
F#|-1--3--3--1--3--3--|--1--3--3--5--2--5--|--1--3--3--1--3--3--|--1--3--3--5--2--2--|
B |-2--4--4--2--4--4--|--2--4--4--5--2--5--|--2--4--4--2--4--4--|--2--4--4--5--2--2--|
 
C#|-----------|--------------------|--------------------|-----------------|
G#|-----------|--------------------|--------------------|-----------------|
E |-----------|--------------------|--------------------|-----------------|
B |-----------|--------------------|--------------------|-----------------|
F#|--1--3--3--|--1--3--3--5--2--5--|--1--3--3--1--3--3--|--1--3--5--2--2--|
B |--2--4--4--|--2--4--4--5--2--5--|--2--4--4--2--4--4--|--2--4--5--2--2--|
 
[Chorus 1]
 
C#|------------------|--------------------|-------------|---------------------|---------------|
G#|------------------|--------------------|-------------|---------------------|---------------|
E |------------------|--------------------|-------------|---------------------|---------------|
B |------------------|--------------------|-------------|---------------------|---------------|
F#|------------------|--------------------|-------------|---------------------|---------------|
B |--0-----0--0-0----|--2-2--2--2-2----2--|--4--4--4-4--|--4-4--4--4-4--4--4--|--0--0--0-0----|
 
C#|---------------|----------------|---------------------------------------|-------------|
G#|---------------|----------------|---------------------------------------|-------------|
E |---------------|----------------|---------------------------------------|-------------|
B |---------------|----------------|---------------------------------------|-------------|
F#|---------------|----------------|---------------------------------------|-------------|
B |--9-9--9--9-9--|--4--4--4-4--4--|--11-11-11-11-11-11-11-11-11-11-11-11--|--0--0--0-0--|
 
C#|------------------|-------------------|---------------------------------------|
G#|------------------|-------------------|---------------------------------------|
E |------------------|-------------------|---------------------------------------|
B |------------------|-------------------|---------------------------------------|
F#|------------------|-------------------|---------------------------------------|
B |--2-2--2--2-2--2--|--4--4--4-4--4--4--|--11-11-11-11-11-11-11-11-11-11-11-11--|
 
C#|---------------|---------------|---------------------------|---------------------|
G#|---------------|---------------|---------------------------|---------------------|
E |---------------|---------------|---------------------------|---------------------|
B |---------------|---------------|---------------------------|---------------------|
F#|---------------|---------------|---------------------------|--5--5--5--X-5----5--|
B |--0-0-0-0-0-0--|--0-0-0-0-0-0--|--9-9-9-9-9-9-9-9-9-9-9-9--|--5--5--5--X-5----5--|
 
[Pre Chorus]
 
P.M
C#|-------------------------------|-----------------------------|
G#|-------------------------------|-----------------------------|
E |-------------------------------|-----------------------------|
B |-------------------------------|-----------------------------|
F#|-------------------------------|-----------------------------|
B |--2-4-4-4-4-4-4-2-4-4-4-4-4-4--|--2-4-4-4-4-4-4-5-5-5-5-5-5--|
 
 
[Chorus 2]
 
C#|------------------|--------------------|-------------|---------------------|---------------|
G#|------------------|--------------------|-------------|---------------------|---------------|
E |------------------|--------------------|-------------|---------------------|---------------|
B |------------------|--------------------|-------------|---------------------|---------------|
F#|------------------|--------------------|-------------|---------------------|---------------|
B |--0-----0--0-0----|--2-2--2--2-2----2--|--4--4--4-4--|--4-4--4--4-4--4--4--|--0--0--0-0----|
 
C#|---------------|----------------|---------------------------------------|-------------|
G#|---------------|----------------|---------------------------------------|-------------|
E |---------------|----------------|---------------------------------------|-------------|
B |---------------|----------------|---------------------------------------|-------------|
F#|---------------|----------------|---------------------------------------|-------------|
B |--9-9--9--9-9--|--4--4--4-4--4--|--11-11-11-11-11-11-11-11-11-11-11-11--|--0--0--0-0--|
 
C#|------------------|-------------------|---------------------------------------|
G#|------------------|-------------------|---------------------------------------|
E |------------------|-------------------|---------------------------------------|
B |------------------|-------------------|---------------------------------------|
F#|------------------|-------------------|---------------------------------------|
B |--2-2--2--2-2--2--|--4--4--4-4--4--4--|--11-11-11-11-11-11-11-11-11-11-11-11--|
 
C#|---------------|---------------|---------------------------|---------------------|
G#|---------------|---------------|---------------------------|---------------------|
E |---------------|---------------|---------------------------|---------------------|
B |---------------|---------------|---------------------------|---------------------|
F#|---------------|---------------|---------------------------|--5--5--5--X-5----5--|
B |--0-0-0-0-0-0--|--0-0-0-0-0-0--|--9-9-9-9-9-9-9-9-9-9-9-9--|--5--5--5--X-5----5--|
 
[Pre Breakdown]
 
C#|--------------------------|---------------------|--------------------------|
G#|--------------------------|---------------------|--------------------------|
E |--------------------------|---------------------|--------------------------|
B |--------------------------|---------------------|--------------------------|
F#|--2-4-4-4-4----2-4-4-4-4--|--4-4-4-4-2-4-4-4-4--|--2-4-4-4-4----2-4-4-4-4--|
B |--2-4-4-4-4----2-4-4-4-4--|--4-4-4-4-2-4-4-4-4--|--2-4-4-4-4----2-4-4-4-4--|
 
C#|-------------------|----------------------|---------------------|------------------------|
G#|-------------------|----------------------|---------------------|------------------------|
E |-------------------|----------------------|---------------------|------------------------|
B |-------------------|----------------------|---------------------|------------------------|
F#|--4-4-4-4-2-4-4-5--|--2-4-4-4--2-4-4-4-4--|--4-4-4-4-2-4-4-4-4--|--2-4-4-4-4--2-4-4-4-4--|
B |--4-4-4-4-2-4-4-5--|--2-4-4-4--2-4-4-4-4--|--4-4-4-4-2-4-4-4-4--|--2-4-4-4-4--2-4-4-4-4--|
 
[BREAKDOWN]
 
C#|----------------------|-------------------|---------------------------------------|
G#|----------------------|-------------------|---------------------------------------|
E |----------------------|-------------------|---------------------------------------|
B |----------------------|-------------------|---------------------------------------|
F#|----------------------|----------------------------------------------------------
B |--4--3--6--2-4-4-4-3--|--4--3--6--2-4-4-4-2--|--4--3--6--2-4-4-4-3--|--4--3--6--|
 
C#|----------------------|----------------------|----------------------|----------------------|
G#|----------------------|----------------------|----------------------|----------------------|
E |----------------------|----------------------|----------------------|----------------------|
B |----------------------|----------------------|----------------------|----------------------|
F#|--4--3--6--2-4-4-4-3--|--4--3--6--2-4-4-4-3--|--4--3--6--2-4-4-4-2--|--4--3--6--2-4-4-4-2--|
B |--4--3--6--2-4-4-4-3--|--4--3--6--2-4-4-4-3--|--4--3--6--2-4-4-4-2--|--4--3--6--2-4-4-4-2--|
 
C#|------------------|----------------|----------------------|----------------------|
G#|------------------|----------------|----------------------|----------------------|
E |------------------|----------------|----------------------|----------------------|
B |------------------|----------------|----------------------|----------------------|
F#|--4--3--6--|--4--3--6--|--4--3--6--|--4--3--6--2-4-4-4-2--|--4--3--6--2-4-4-4-3--|
B |--4--3--6--|--4--3--6--|--4--3--6--|--4--3--6--2-4-4-4-2--|--4--3--6--2-4-4-4-3--|
 
C#|----------------------|----------------------|----------------------|
G#|----------------------|----------------------|----------------------|
E |----------------------|----------------------|----------------------|
B |----------------------|----------------------|----------------------|
F#|--4--3--6--2-4-4-4-2--|--4--3--6--2-4-4-4-3--|--4--3--6--2-4-4-4-2--|
B |--4--3--6--2-4-4-4-2--|--4--3--6--2-4-4-4-3--|--4--3--6--2-4-4-4-2--|
 
[Chorus 3]
 
C#|--------------------|-------------|---------------------|---------------|
G#|--------------------|-------------|---------------------|---------------|
E |--------------------|-------------|---------------------|---------------|
B |--------------------|-------------|---------------------|---------------|
F#|--------------------|-------------|---------------------|---------------|
B |--2-2--2--2-2----2--|--4--4--4-4--|--4-4--4--4-4--4--4--|--0--0--0-0----|
 
C#|---------------|----------------|---------------------------------------|-------------|
G#|---------------|----------------|---------------------------------------|-------------|
E |---------------|----------------|---------------------------------------|-------------|
B |---------------|----------------|---------------------------------------|-------------|
F#|---------------|----------------|---------------------------------------|-------------|
B |--9-9--9--9-9--|--4--4--4-4--4--|--11-11-11-11-11-11-11-11-11-11-11-11--|--0--0--0-0--|
 
C#|-----------------X-------|-------------|-----------------------------------------------|
G#|------------------X------|-------------|-----------------------------------------------|
E |-------------------X-----|-------------|-----------------------------------------------|
B |--------------------X----|-------------|-----------------------------------------------|
F#|---------------------X---|-------------|-----------------------------------------------|
B |--2-2--2--2-2---------X--|--4--4--4--4--4--4--4|--11-11-11-11-11-11-11-11-11-11-11-11--|
 
C#|---------------|---------------|---------------------------|---------------------|
G#|---------------|---------------|---------------------------|---------------------|
E |---------------|---------------|---------------------------|---------------------|
B |---------------|---------------|---------------------------|---------------------|
F#|---------------|---------------|---------------------------|--5--5--5--X-5----5--|
B |--0-0-0-0-0-0--|--0-0-0-0-0-0--|--9-9-9-9-9-9-9-9-9-9-9-9--|--5--5--5--X-5----5--|
 
[Final Riff]
 
C#|-------------------|--------------------|--------------------|-----------------|
G#|-------------------|--------------------|--------------------|-----------------|
E |-------------------|--------------------|--------------------|-----------------|
B |-------------------|--------------------|--------------------|-----------------|
F#|-1--3--3--1--3--3--|--1--3--3--5--2--5--|--1--3--3--1--3--3--|--1--3--3--5--2--|
B |-2--4--4--2--4--4--|--2--4--4--5--2--5--|--2--4--4--2--4--4--|--2--4--4--5--2--|
 
C#|-----------------|----------------|------------|------------------|
G#|-----------------|----------------|------------|------------------|
E |-----------------|----------------|------------|------------------|
B |-----------------|----------------|------------|------------------|
F#|-2-4--4--2-4--4--|--2-4--4--5--2--|--5-4--5-4--|--5-4----%-4-4-4-4|
B |-2-4--4--2-4--4--|--2-4--4--5--2--|--5-4--5-4--|--5-4----5-4-4-4-4|
            
Submit corrections

↑ Back to top | Tablatures and chords for acoustic guitar and electric guitar, ukulele, drums are parodies/interpretations of the original songs. You may use it for private study, scholarship, research or language learning purposes only