Home » B » Breaking Benjamin »

Breaking Benjamin - You Bass

Artists:  A B C D E F G H I J K L M N O P Q R S T U V W X Y Z # 

You Bass

(ver. 2) Click to play this song!
Breaking Benjamin
 Rating:
4/5 (4 votes)
                “You” – Breaking Benjamin

Standard Tuning

Verse 1 x2
G|------------------------------|
D|------------------------------|
A|------------------------------|
E|---5--5-5-5-5-5--0-0-0-0-0-0--|

Chorus 1 x1
G|---------------------------------------|
D|---------------------------------------|
A|---------------------------------------|
E|---1-111-11-11-1111--3-333-33--3-5-x3--|

G|--------------------------------------|
D|--------------------------------------|
A|--------------------------------------|
E|--1-111-11-11-1111--3-333-33--55-333--|

G|--------------------------------------------|
D|--------------------------------------------|
A|--------------------------------------------|
E|--1-111-11-11-1111--3-333-33--55-555—-1/8---|

“You” x2
G|-----------------------------------------|
D|-----------------------------------------|
A|-----------------------------------------|
E|--5-5-5-5-5--7h8-8-8---2-2-2-2--0-0-0-0--|

Verse 2 x4
G|--------------------------------------------|
D|--------------------------------------------|
A|--------------------------------------------|
E|-0~--2-0-0-x-5h6p0----0—2-0-0-x-4p2p0-------|

Chorus 2 (same as chorus 1)

“You”
G|------------------------------------------------------|
D|-------------------------------------7-5-3------------|
A|-------------------------------------------5-3-2------|
E|-6-6-6-6-6-6-6-6-2-2-2-2-2-2-2-2-2-2-------------4-2--|

G|--------------------------------------------------------------------|
D|--------------------------------------------------------------------|
A|--------------------------------------------------------------------|
E|-6-6-6-6-6-6-6-6-2-2-2-2-2-2-2-2-2-3-3-3-3-3-3-3-3-3-3-3-3-3-3-3-3-3|

“You” Louder x4
G|------------------------------------------------------------|
D|--------------------------------------------7-5-3-----------|
A|-----------------0-0-0-0--------------------------5-3-2-----|
E|-6-6-6-6-6-6-6-6----------2-2-2-2-2-2-2-2---------------2-0-|

Ending
G|-----|
D|-----|
A|-----|
E|-0---|
            
Submit corrections

↑ Back to top | Tablatures and chords for acoustic guitar and electric guitar, ukulele, drums are parodies/interpretations of the original songs. You may use it for private study, scholarship, research or language learning purposes only