» » »

Breaking Benjamin - Angels Fall Tabs

Artists:  A B C D E F G H I J K L M N O P Q R S T U V W X Y Z # 

Angels Fall Tabs

(ver. 1) Click to play this song!
Breaking Benjamin
 Rating:
4/5 (4 votes)

 Angels Fall  lessons Tabs too difficult? Try these video lessons and learn fast
 
                Tuning: Drop C


INTRO: (0:10)
Guitar 1 & 2
D--------------------------------------------------------------------|
A----------7-7-7-------7-7-7----------------7-7-7--------7-7-7-------|
F--------------------------------------------------------------------|
C--------------------------------------------------------------------|
G---4---4-X-----4---4-X------4h5p4p0-4---4-X------4---4-X------4/7---|
C---4---4-X-----4---4-X------4h5p4p0-4---4-X------4---4-X------4/7---|

Guitar 1 (0:15)
D-------------------------------------|
A-------------------------------------|
F-------------------------------------|
C-------------------------------------|
G---0-----0-----0-----2-----2-----2---|
C---0-----0-----0-----2-----2-----2---|

Guitar 2 (0:15)
D-------------------------------------|
A-------------------------------------|
F---11----13----14----13----14----13--|
C---x-----x-----x-----x-----x-----x---|
G---9-----11----12----11----12----11--|
C-------------------------------------|

Guitar 1 & 2 (0:20)
D--------------------------------------------------------------------|
A----------7-7-7-------7-7-7----------------7-7-7--------7-7-7-------|
F--------------------------------------------------------------------|
C--------------------------------------------------------------------|
G---4---4-X-----4---4-X------4h5p4p0-4---4-X------4---4-X------4/7---|
C---4---4-X-----4---4-X------4h5p4p0-4---4-X------4---4-X------4/7---|

Guitar 1 (0:25)
D-------------------------------------------|
A-------------------------------------------|
F-------------------------------------------|
C-------------------------------------------|
G---0-----0-----0-----2-----2-----0-----4---|
C---0-----0-----0-----2-----2-----0-----4---|

Guitar 2 (0:25)
D-------------------------------------------|
A-------------------------------------------|
F---11----13----14----13----16----19----18--|
C---x-----x-----x-----x-----x-----x-----x---|
G---9-----11----12----11----14----17----16--|
C-------------------------------------------|

VERSE: (0:30) (Slide note, don't pick)
Guitar 1
D------------------------------------------|
A------------------------------------------|
F------------------------------------------|
C------------------------------------------|
G---------------/7---------------------X---| Stop note at X
C---------------/7---------------------X---|
        I try to face the fight within

Guitar 2 (0:49) (Clean effect) 
D-----------0---------------0---------------0-----------------0-----|
A-------2---------------2---------------2-----------------2---------|
F-------------------------------------------------------------------|
C-------------------------------------------------------------------| x2
G--------------------0----------------------------------------------|
C---4-------------------------------0---------------2---------------|

CHORUS: (1:09) DISTORTION
Guitar 1
D-----------------------------------------------------------------------------------|
A-----------------------------------------------------------------------------------|
F-----------------------------------------------------------------------------------|
C---4---4---4---4---4---0---0---0---0---0---7---7---7---7---7---2---2---2---2---X-0-|
G---4---4---4---4---4---0---0---0---0---0---7---7---7---7---7---2---2---2---2---X-0-|
C---4---4---4---4---4---0---0---0---0---0---7---7---7---7---7---2---2---2---2---X-0-|
    Angels fall..       Broken wings!       Can't give up!      Can't give in!

Guitar 2 (1:09)
D-----------------------------------------------------------------------------------|
A-------10--10--------------10--10--------------10--12--10----------10--12--10------|
F-------x---x---------------x---x---------------x---x---x---9-------x---x---x----9--|
C-------7---7---------------7---7---------------7---9---7---x-------7---9---7----x--|
G-----------------------------------------------------------7--------------------7--|
C-----------------------------------------------------------------------------------|

Guitar 1 (1:21)
D-----------------------------------------------------------------------------------|
A-----------------------------------------------------------------------------------|
F-----------------------------------------------------------------------------------|
C---4---4---4---4---4---0---0---0---0---0---7---7---7---7---7---2---2---2---2---2---|
G---4---4---4---4---4---0---0---0---0---0---7---7---7---7---7---2---2---2---2---2---|
C---4---4---4---4---4---0---0---0---0---0---7---7---7---7---7---2---2---2---2---2---|
    All is lost..       Daylight ends..     Carry you..         We will live for-

Guitar 2 (1:21)
D-----------------------------------------------------------------------------------|
A-------10--10--------------10--10--------------10--12--10----------10--12--10------|
F-------x---x---------------x---x---------------x---x---x---9-------x---x---x---9---|
C-------7---7---------------7---7---------------7---9---7---x-------7---9---7---x---|
G-----------------------------------------------------------7-------------------7---|
C-----------------------------------------------------------------------------------|

Guitar 1 & 2 (1:30)
D---------------------------------------------|
A---------------------------------------------|
F---------------------------------------------|
C---0---0---0---0---0---2---2---2---2---X-0---|
G---0---0---0---0---0---2---2---2---2---X-0---|
C---0---0---0---0---0---2---2---2---2---X-0---|
   -Ever!           Forever!

POST-CHORUS: (1:35)
Guitar 1 & 2
D--------------------------------------------------------------------|
A----------7-7-7-------7-7-7----------------7-7-7--------7-7-7-------|
F--------------------------------------------------------------------|
C--------------------------------------------------------------------|
G---4---4-X-----4---4-X------4h5p4p0-4---4-X------4---4-X------4/7---|
C---4---4-X-----4---4-X------4h5p4p0-4---4-X------4---4-X------4/7---|

Guitar 1 (1:41)
D-------------------------------------------|
A-------------------------------------------|
F-------------------------------------------|
C-------------------------------------------|
G---0-----0-----0-----7-----7-----0-----4---|
C---0-----0-----0-----6-----6-----0-----4---|

Guitar 2 (1:41)
D-------------------------------------------|
A-------------------------------------------|
F---11----13----14----13----16----19----18--|
C---x-----x-----x-----x-----x-----x-----x---|
G---9-----11----12----11----14----17----16--|
C-------------------------------------------|

VERSE 2: (1:46)
Guitar 1 (Slide note, don't pick)
D------------------------------------------|
A------------------------------------------|
F------------------------------------------|
C------------------------------------------|
G---------------/7---------------------X---| Stop note at X
C---------------/7---------------------X---|
  Grey skies..   Chase the light away..

Guitar 2: (1:51) (Clean effect)
D-------------0----------------------------|
A---------0--------------------------------|
F-----2------------------------------------|
C------------------------------------------|
G------------------------------------------|
C-0----------------------------------------|
                    No longer!

Guitar 1: (1:55)
D-------------------------------------------------------------------|
A-------------------------------------------------------------------|
F-------------------------------------------------------------------|
C-------------------------------------------------------------------|
G---4--4--4--4--4----7--7--7--7--7--0--0--0--0--0----2--2--2--2--2--|
C---4--4--4--4--4----7--7--7--7--7--0--0--0--0--0----2--2--2--2--2--|
    *  *  *  *  *    *  *  *  *     *  *  *  *  *    *  *  *  *  
    Fought in..      Only dark..    Remains..        Forever..

Guitar 2: (1:55) (Clean effect)
D-----------0---------------0---------------0-----------------0-----|
A-------2---------------2---------------2-----------------2---------|
F-------------------------------------------------------------------|
C-------------------------------------------------------------------| play once
G--------------------0----------------------------------------------|
C---4-------------------------------0---------------2---------------|

Guitar 1 & 2 (2:05) DISTORTION
D----------------------------------------------------------------|
A----------------------------------------------------------------|
F----------------------------------------------------------------|
C------------------------------------------------------------0---|
G---0-----------XX-2---------7-----0------------XX-2-------X-0---|
C---0-----------XX-2---------7-----0------------XX-2-------X-0---|
    Divided I will stand!          I will let this end!    When-

CHORUS 2:
Guitar 1 (2:14)
D-----------------------------------------------------------------------------------|
A-----------------------------------------------------------------------------------|
F-----------------------------------------------------------------------------------|
C---4---4---4---4---4---0---0---0---0---0---7---7---7---7---7---2---2---2---2---X-0-|
G---4---4---4---4---4---0---0---0---0---0---7---7---7---7---7---2---2---2---2---X-0-|
C---4---4---4---4---4---0---0---0---0---0---7---7---7---7---7---2---2---2---2---X-0-|
    Angels fall..       Broken wings!       Can't give up!      Can't give in!

Guitar 2 (2:14)
D-----------------------------------------------------------------------------------|
A-------10--10--------------10--10--------------10--12--10----------10--12--10------|
F-------x---x---------------x---x---------------x---x---x---9-------x---x---x----9--|
C-------7---7---------------7---7---------------7---9---7---x-------7---9---7----x--|
G-----------------------------------------------------------7--------------------7--|
C-----------------------------------------------------------------------------------|

Guitar 1 (2:25)
D-----------------------------------------------------------------------------------|
A-----------------------------------------------------------------------------------|
F-----------------------------------------------------------------------------------|
C---4---4---4---4---4---0---0---0---0---0---7---7---7---7---7---2---2---2---2---2---|
G---4---4---4---4---4---0---0---0---0---0---7---7---7---7---7---2---2---2---2---2---|
C---4---4---4---4---4---0---0---0---0---0---7---7---7---7---7---2---2---2---2---2---|
    All is lost..       Daylight ends..     Carry you..         We will live for-

Guitar 2 (2:25)
D-----------------------------------------------------------------------------------|
A-------10--10--------------10--10--------------10--12--10----------10--12--10------|
F-------x---x---------------x---x---------------x---x---x---9-------x---x---x---9---|
C-------7---7---------------7---7---------------7---9---7---x-------7---9---7---x---|
G-----------------------------------------------------------7-------------------7---|
C-----------------------------------------------------------------------------------|

Guitar 1 & 2 (2:34)
D-----------------------------------------|
A-----------------------------------------|
F-----------------------------------------|
C-----------------------2------/7---9-----|
G---0---0---0---0---0---2------/7---7-----|
C---0---0---0---0---0---2------/7---6-----|
   -Ever!           Forever!

BREAK:
Guitar 1 (2:39)
D---------------------------------------------------------------------|
A---------------------------------------------------------------------|
F---------------------------------------------------------------------|
C---------------0-----------------2-----------------4-----7---9---9---|
G---0---0---0---0-----2---2---2---2-----4---4---4---4-----7---7---7---|
C---0---0---0---0-----2---2---2---2-----4---4---4---4-----7---6---6---|
                    Sun begins to..     Rise!             Wash away..

Guitar 2 (2:39)
D---------------------------------0-----------------------------------|
A---------------5--------------------2----------7---7-----------------|
F------------------6--------------------------------6-----9-----------|
C---------------------------------------------------4-----9---9---9---|
G---0---0---0---------2---2---2---------4---4-------4-----7---7---7---|
C---0---0---0---------2---2---2---------4---4-------4-----7---6---6---|

Guitar 1 (2:49)
D---------------------------------------------------------------------|
A---------------------------------------------------------------------|
F---------------------------------------------------------------------|
C---------------0-----------------2-------------------4-----7---9---9-|
G---0---0---0---0-----2---2---2---2-------4---4---4---4-----7---7---7-|
C---0---0---0---0-----2---2---2---2-------4---4---4---4-----7---6---6-|
                      Turning of the..    Time..            Leave it all..

Guitar 2 (2:49)
D---------------------------------------------------------------------|
A---------------3--5----------------------------------7---------------|
F-----------------------------------------------------6-----9---------|
C---------------------------------2-------------------4-----9---9---9-|
G---0---0---0---------2---2---2---2-------4---4---4---4-----7---7---7-|
C---0---0---0---------2---2---2---2---6~--4---4---4---4-----7---6---6-|

Guitar 1 (2:58)
D----------------------------------------------|
A----------------------------------------------|
F----------------------------------------------|
C-------------------0--------------------------|
G---0-0---0---0-0---0------2---2---2---2---2---|
C---0-0---0---0-0---0------2---2---2---2---2---|
    * *   *   * *
                    I will never say goodbye!

Guitar 2 (2:58)
D----------------------------------------------|
A-------------------3---2----------------------|
F----------------------------------------------|
C----------------------------------------------|
G---0-0---0---0-0----------2---2---2---2---2---|
C---0-0---0---0-0----------2---2---2---2---2---|
    * *   *   * *

CHORUS 3: (3:04)
Guitar 1: (Clean effect) STRUMMING
D-----------0-------------------------------------------0---------------------------|
A-----------0-------------------------3-----------------0-----------------------5---|
F-----------6----------6--------------2-----------------2-----------------------4---|
C---4---4---4----------4--------------0-----------------2----------------2-2----2---|
G---4---4---4----------4--------------0-----------------0----------------2-2----2---|
C---4---4---4----------4--------------0----------------------------------2-2----2---|
                When angels fall..  Broken wings..  Can't give up..  Can't give in!

Guitar 1: (3:16)
D-----------------------------------------------------------------------------------|
A-----------------------------------------------------------------------------------|
F-----------------------------------------------------------------------------------|
C---4---4---4---4---4---0---0---0---0---0---7---7---7---7---7---2---2---2---2---2---|
G---4---4---4---4---4---0---0---0---0---0---7---7---7---7---7---2---2---2---2---2---|
C---4---4---4---4---4---0---0---0---0---0---7---7---7---7---7---2---2---2---2---2---|
    All is lost..       Daylight ends..     Carry you..         We will live for-

Guitar 2 (3:16)
D-----------------------------------------------------------------------------------|
A-------10--10--------------10--10--------------10--12--10----------10--12--10------|
F-------x---x---------------x---x---------------x---x---x---9-------x---x---x---9---|
C-------7---7---------------7---7---------------7---9---7---x-------7---9---7---x---|
G-----------------------------------------------------------7-------------------7---|
C-----------------------------------------------------------------------------------|

Guitar 1 & 2 (3:25)
D---------------------------------------------|
A---------------------------------------------|
F---------------------------------------------|
C---0---0---0---0---0---2---2---2---2---2-----|
G---0---0---0---0---0---2---2---2---2---2-----|
C---0---0---0---0---0---2---2---2---2---2-----|
   -Ever!           Forever!               For-

Guitar 1 & 2 (3:31)
D---------------------------------------------|
A---------------------------------------------|
F---------------------------------------------|
C---0---0---0---0---0---2---2---2---2---X-0---|
G---0---0---0---0---0---2---2---2---2---X-0---|
C---0---0---0---0---0---2---2---2---2---X-0---|
   -Ever!           Forever!

Guitar 1 (3:35)
D---------------------------------------------|
A---------------------------------------------|
F---------------------------------------------|
C---4-4-4-4---X-4-4-4-4---X-4-2---4-----------|
G---4-4-4-4---X-4-4-4-4---X-4-2---4-----------|
C---4-4-4-4---X-4-4-4-4---X-4-2---4-----------|

Guitar 2 (3:35)
D-------------------------------------0-------|
A-----------------------------------------2---|
F---------------------------------2-----------|
C---4-4-4-4---X-4-4-4-4---X-4-2---------------|
G---4-4-4-4---X-4-4-4-4---X-4-2---------------|
C---4-4-4-4---X-4-4-4-4---X-4-2---------------|            
Submit corrections


        Angels Fall  lessons Hard to play? Try these video lessons and learn fast Angels Fall  lessons
        
↑ Back to top | Tablatures and chords for acoustic guitar and electric guitar, ukulele, drums are parodies/interpretations of the original songs. You may use it for private study, scholarship, research or language learning purposes only