Home » B » Breaking Benjamin »

Breaking Benjamin - You Bass

Artists:  A B C D E F G H I J K L M N O P Q R S T U V W X Y Z # 

You Bass

(ver. 1) Click to play this song!
Breaking Benjamin
 Rating:
4/5 (4 votes)
                |===========================================================================|
|*Song: You                                                              |
|*Artist: Breaking Benjamin                                                 |
|*Tuning: Standard BEADG                                                    |
|===========================================================================|
 There are a lot of little fills in there but if I did it all, what would you
 have left?
|===========================================================================|


Intro/1st verse Come in at 16 seconds:
G|--------------------------------------------------------|
D|--------------------------------------------------------|
A|--------------------------------------------------------|
E|-12-12-12-12-12/8-8-8-8-8-------------------------------|
B|--------------------------------------------------------|

Chorus:                                         end chorus:
G|------------------------------------------------|-------|
D|------------------------------------------------|-------|
A|------------------------------------------------|-------|
E|-1-1-1-1-1---------3-3-3-3-x-3--repeat----------|--/13--|
B|-----------1-1-1-1------------------------------|-------|
|
Remaining Verses:
G|--------------------------------------------------------|
D|--------------------------------------------------------|
A|--------5h7---------------------------------------------|
E|-0-0-0-0---0/8-8-8-8-8----------------------------------|
B|--------------------------------------------------------|

After second chorus: The You uu part      little riff:
G|--------------------------------------------------------|
D|-----------------------------/10-11-10-9-10-9-----------|
A|--------5h7-----------------------------------10--------|
E|-0-0-0-0---0/8-8-8-8-8/---------------------------------|
B|--------------------------------------------------------|


Just listen for the times and the rythm. Its a cool song and I thought
it would be nice to play along.
            
Submit corrections

↑ Back to top | Tablatures and chords for acoustic guitar and electric guitar, ukulele, drums are parodies/interpretations of the original songs. You may use it for private study, scholarship, research or language learning purposes only