Home » B » Breaking Benjamin »

Breaking Benjamin - Bury Me Alive Tabs

Artists:  A B C D E F G H I J K L M N O P Q R S T U V W X Y Z # 

Bury Me Alive Tabs

(ver. 1) Click to play this song!
Breaking Benjamin
 Rating:
3.4/5 (20 votes)
                Tuning: Drop Bb


INTRO:
Guitar 2 Lead: (0:00)
C-------------------------------------------------------------------------------|
G-------------------------------------------------------------------------------|
D#------------------------------------------------------------------------------|
A#------------------------------------------------------------------------------| x2
F-------------------------------------------------------------------------------|
A#-12--12-12-12-12-12-12-12-12-12-12-12-12-12-12-12-12-12b12b12b12b12b12b12b12b-|


Guitar 1 Rhythm: (0:10)
C------------------------------------------------------------------------------------|
G------------------------------------------------------------------------------------|
D#-----------------------------------------------------------------------------------|
A#-----------------------------------------------------------------------------------|
F--------0--x-0--x-0-0--x-0--x-0--x-0--x-0-0--x-0--x-0--x-0--------12-------13-------|
A#-13p12-0--x-0--x-0-0--x-0--x-0--x-0--x-0-0--x-0--x-0--x-0--12h13----13p12----13p12-|

Guitar 2 Lead: (0:10)
C----------------------------------------------------------------------|
G----------------------------------------------------------------------|
D#---------------------------------------------------------------------|
A#---------------------------------------------------------------------|
F----------------------------------------------------------------------|
A#-------12-12-12-12-12-12-12-12-12-12-12-12-12-12-12-12-12-x----------|

Guitar 1 Rhythm: (0:16)
C#------------------------------------------------------------------------|
G#------------------------------------------------------------------------|
D#------------------------------------------------------------------------|
A#------------------------------------------------------------------------|
F#-0--x-0--x-0-0--x-0--x-0--x-0--x-0-0--x-0--x-0--------------------------|
A#-0--x-0--x-0-0--x-0--x-0--x-0--x-0-0--x-0--x-0--13-13-13-13-13\10-10-10-|

Guitar 2 Lead: (0:16)
C------------------------------------------------------------------|
G------------------------------------------------------------------|
D#-----------------------------------------------------------------|
A#-----------------------------------------------------------------|
F------------------------------------------------------------------|
A#-12-12-12-12-12-12-12-12-12-12-12-12-12-12-12-x------------------|

Guitar 1 Rhythm: (0:21)
C------------------------------------------------------------------------------------|
G------------------------------------------------------------------------------------|
D#-----------------------------------------------------------------------------------|
A#-----------------------------------------------------------------------------------|
F--------0--x-0--x-0-0--x-0--x-0--x-0--x-0-0--x-0--x-0--x-0--------12-------13-------|
A#-13p12-0--x-0--x-0-0--x-0--x-0--x-0--x-0-0--x-0--x-0--x-0--12h13----13p12----13p12-|


Guitar 1 Lead: (0:21)
C------------------------------------------------------------------------|
G------------------------------------------------------------------------|
D#-----------------------------------------------------------------------|
A#-----------------------------------------------------------------------|
F------------------------------------------------------------------------|
A#-------12-12-12-12-12-12-12-12-12-12-12-12-12-12-12-12-12-x------------|

Guitar 1 Rhythm: (0:26)
C#------------------------------------------------------------------------|
G#------------------------------------------------------------------------|
D#------------------------------------------------------------------------|
A#------------------------------------------------------------------------|
F#-0--x-0--x-0-0--x-0--x-0--x-0--x-0-0--x-0--x-0--------------------------|
A#-0--x-0--x-0-0--x-0--x-0--x-0--x-0-0--x-0--x-0--13-13-13-13-13\10-10-10-|

Guitar 2 Lead: (0:26)
C------------------------------------------------------------------|
G------------------------------------------------------------------|
D#-----------------------------------------------------------------|
A#-----------------------------------------------------------------|
F------------------------------------------------------------------|
A#-12-12-12-12-12-12-12-12-12-12-12-12-12-12-12-x------------------|


VERSE:
Guitar 1 Rhythm: (0:31)
C-----------------------------------------------------------------------|
G-----------------------------------------------------------------------|
D#----------------------------------------------------------------------|
A#----------------------------------------------------------------------|
F--------0--x-0--x-0-0--x-------0--x--0--x--0-0--x-0--------------------|
A#-13-12-0--x-0--x-0-0--x-------0--x--0--x--0-0--x-0--13\12-10h12/13\12-|
   *  *  *    *    * *          *     *     * *    *
                     I keep falling out of line..

Guitar 2 Lead: (0:31)
C-------------------------10~----------------------10~-----------------|
G--10~-------------------------11~-------------------------------------|
D#---------------------------------------------------------------------|
A#---------------------------------------------------------------------|
F----------------------------------------------------------------------|
A#---------------------------------------------------------------------|

Guitar 1 Rhythm: (0:37)
C-------------------------------------------------------|
G-------------------------------------------------------|
D#------------------------------------------------------|
A#------------------------------------------------------|
F--0--x-0--x-0-0--x-------0--x--0--x--0-0--x-0----------|
A#-0--x-0--x-0-0--x-------0--x--0--x--0-0--x-0--1p0-1h3-|
   *    *    * *          *     *     * *    *
               I was drained and left behind..

Guitar 2 Lead: (0:37)
C----------------------------------------------------------------------|
G--10~-------------------------11~-----------8~------------------------|
D#------------------------7~-------------------------------------------|
A#---------------------------------------------------------------------|
F----------------------------------------------------------------------|
A#---------------------------------------------------------------------|

Guitar 1 Rhythm: (0:42)
C----------------------------------------------------------------------|
G----------------------------------------------------------------------|
D#---------------------------------------------------------------------|
A#---------------------------------------------------------------------|
F-------0--x-0--x-0-0--x-------0--x--0--x--0-0--x-0--------------------|
A#-1p0--0--x-0--x-0-0--x-------0--x--0--x--0-0--x-0--13\12-10h12/13\12-|
   * *  *    *    * *          *     *     * *    * 
                    All will fade and petrify..

Guitar 2 Lead: (0:42)
C-------------------------10~---------------------10~------------------|
G--10~-------------------------11~-------------------------------------|
D#---------------------------------------------------------------------|
A#---------------------------------------------------------------------|
F----------------------------------------------------------------------|
A#---------------------------------------------------------------------|

Guitar 1 Rhythm: (0:47)
C-------------------------------------------------------|
G-------------------------------------------------------|
D#------------------------------------------------------|
A#-----------------------------------------------X-X----|
F--0--x-0--x-0-0--x-------0--x--0--x--0-0--x-0---X-X----|
A#-0--x-0--x-0-0--x-------0--x--0--x--0-0--x-0---X-X----|
   *    *    * *          *     *     * *    *
               Feed the hate and start the LIES!

Guitar 2 Lead: (0:47)
C----------------------------------------------------------------------|
G--10~-------------------------11~---------------13~-------------------|
D#------------------------7~-------------------------------------------|
A#---------------------------------------------------------------------|
F----------------------------------------------------------------------|
A#---------------------------------------------------------------------|         


PRE-CHORUS:
Both Guitars: (0:52)
C--------------------------------------------------------------------------|
G--------------------------------------------------------------------------|
D#-------------------------------------------------------------------------|
A#-6--x-6--x-6--x-6--6----10-10-10-10-10-10--6--x-6--x-6--x-6--6-----------|
F--6--x-6--x-6--x-6--6-----------------------6--x-6--x-6--x-6--6------3h6--|
A#-6--x-6--x-6--x-6--6-----------------------6--x-6--x-6--x-6--6--3h6------|
                                   Falling in between..                

(0:57)
C------------------------------------------------------------------------------|
G------------------------------------------------------------------------------|
D#-----------------------------------------------------------------------------|
A#-6--x-6--x-6--x-6--6----10-10-10-10-10-10--6--x-6--x-6--x-6--6---------------|
F--6--x-6--x-6--x-6--6-----------------------6--x-6--x-6--x-6--6---------------|
A#-6--x-6--x-6--x-6--6-----------------------6--x-6--x-6--x-6--6--12-12-10-12--|
                                   I am caught beneath!


CHORUS: PLAY TWICE
Guitar 1 Rhythm: (1:02 - 1:23)
C---------------------------------------------------------------------------------------|
G---------------------------------------------------------------------------------------|
D#--------------------------------------------------------------------------------------|
A#-0---0---0---0---0-----8---8---8---8---8-----5---5---5---5---5-----8---8---8---8---8--|
F--0---0---0---0---0-----8---8---8---8---8-----5---5---5---5---5-----6---6---6---6---6--| 
A#-0---0---0---0---0-----8---8---8---8---8-----5---5---5---5---5-----5---5---5---5---5--|
             Light the way and let me..        go..                  Suffocate inside!
             I will break and watch you..      crawl..               Bury me alive!

Guitar 2 Lead: (1:02 - 1:23)
C--10--------------------13--------------------15---------------------------------------|
G--x--x16----------------x--x16----------------x--x16----------------10-----------------|
D#-7---------------------10--------------------12--------------------x--x16-------------|
A#-------------------------------------------------------------------7------------------|
F---------------------------------------------------------------------------------------|
A#--------------------------------------------------------------------------------------|


POST-CHORUS:
Guitar 2 Lead: (1:24) Low Volume Distortion
C-------------------------|
G-------------------------|
D#------------------------| wait one second
A#------------------------| after play
F-------------------------|
A#-13p12-0--x-0--x-0-0--x-|

Guitar 1 Rhythm: (1:26)
C------------------------------------------------------------------------------------|
G------------------------------------------------------------------------------------|
D#-----------------------------------------------------------------------------------|
A#-----------------------------------------------------------------------------------|
F--------0--x-0--x-0-0--x-0--x-0--x-0--x-0-0--x-0--x-0--x-0--------12-------13-------|
A#-13p12-0--x-0--x-0-0--x-0--x-0--x-0--x-0-0--x-0--x-0--x-0--12h13----13p12----13p12-|

Guitar 2 Lead: (1:26)
C------------------------------------------------------------------------|
G------------------------------------------------------------------------|
D#-----------------------------------------------------------------------|
A#-----------------------------------------------------------------------|
F------------------------------------------------------------------------|
A#-------12-12-12-12-12-12-12-12-12-12-12-12-12-12-12-12-12-x------------|

Guitar 1 Rhythm: (1:31)
C#------------------------------------------------------------------------|
G#------------------------------------------------------------------------|
D#------------------------------------------------------------------------|
A#------------------------------------------------------------------------|
F#-0--x-0--x-0-0--x-0--x-0--x-0--x-0-0--x-0--x-0--------------------------|
A#-0--x-0--x-0-0--x-0--x-0--x-0--x-0-0--x-0--x-0--13-13-13-13-13\10-10-10-|

Guitar 2 Lead: (1:31)
C------------------------------------------------------------------|
G------------------------------------------------------------------|
D#-----------------------------------------------------------------|
A#-----------------------------------------------------------------|
F------------------------------------------------------------------|
A#-12-12-12-12-12-12-12-12-12-12-12-12-12-12-12-x------------------|


VERSE 2:
Guitar 1 Rhythm: (1:37)
C-----------------------------------------------------------------------|
G-----------------------------------------------------------------------|
D#----------------------------------------------------------------------|
A#----------------------------------------------------------------------|
F--------0--x-0--x-0-0--x-------0--x--0--x--0-0--x-0--------------------|
A#-13-12-0--x-0--x-0-0--x-------0--x--0--x--0-0--x-0--13\12-10h12/13\12-|
   *  *  *    *    * *          *     *     * *    *
                     I keep falling out of time..

Guitar 2 Lead: (1:37)
C-------------------------10~----------------------10~-----------------|
G--10~-------------------------11~-------------------------------------|
D#---------------------------------------------------------------------|
A#---------------------------------------------------------------------|
F----------------------------------------------------------------------|
A#---------------------------------------------------------------------|

Guitar 1 Rhythm: (1:42)
C-------------------------------------------------------|
G-------------------------------------------------------|
D#------------------------------------------------------|
A#------------------------------------------------------|
F--0--x-0--x-0-0--x-------0--x--0--x--0-0--x-0----------|
A#-0--x-0--x-0-0--x-------0--x--0--x--0-0--x-0--1p0-1h3-|
   *    *    * *          *     *     * *    *
               I was blamed and cauterized..

Guitar 2 Lead: (1:42)
C----------------------------------------------------------------------|
G--10~-------------------------11~-----------8~------------------------|
D#------------------------7~-------------------------------------------|
A#---------------------------------------------------------------------|
F----------------------------------------------------------------------|
A#---------------------------------------------------------------------|

Guitar 1 Rhythm: (1:47)
C----------------------------------------------------------------------|
G----------------------------------------------------------------------|
D#---------------------------------------------------------------------|
A#---------------------------------------------------------------------|
F-------0--x-0--x-0-0--x-------0--x--0--x--0-0--x-0--------------------|
A#-1p0--0--x-0--x-0-0--x-------0--x--0--x--0-0--x-0--13\12-10h12/13\12-|
   * *  *    *    * *          *     *     * *    * 
                    All will change and calcify..

Guitar 2 Lead: (1:47)
C-------------------------10~------------------------------------------|
G--10~-------------------------11~----------------8~-------------------|
D#---------------------------------------------------------------------|
A#---------------------------------------------------------------------|
F----------------------------------------------------------------------|
A#---------------------------------------------------------------------|

Guitar 1 Rhythm: (1:53)
C-------------------------------------------------------|
G-------------------------------------------------------|
D#------------------------------------------------------|
A#-----------------------------------------------X-X----|
F--0--x-0--x-0-0--x-------0--x--0--x--0-0--x-0---X-X----|
A#-0--x-0--x-0-0--x-------0--x--0--x--0-0--x-0---X-X----|
   *    *    * *          *     *     * *    *
               Feed the hate and start the LIES!

Guitar 2 Lead: (1:53)
C----------------------------------------------------------------------|
G--10~-------------------------11~---------------13~-------------------|
D#------------------------7~-------------------------------------------|
A#---------------------------------------------------------------------|
F----------------------------------------------------------------------|
A#---------------------------------------------------------------------|


PRE-CHORUS 2:
Both Guitars: (1:58 - 2:07)
C--------------------------------------------------------------------------|
G--------------------------------------------------------------------------|
D#-------------------------------------------------------------------------|
A#-6--x-6--x-6--x-6--6----10-10-10-10-10-10--6--x-6--x-6--x-6--6-----------|
F--6--x-6--x-6--x-6--6-----------------------6--x-6--x-6--x-6--6------3h6--|
A#-6--x-6--x-6--x-6--6-----------------------6--x-6--x-6--x-6--6--3h6------|
                                   Falling in between..

C------------------------------------------------------------------------------|
G------------------------------------------------------------------------------|
D#-----------------------------------------------------------------------------|
A#-6--x-6--x-6--x-6--6----10-10-10-10-10-10--6--x-6--x-6--x-6--6---------------|
F--6--x-6--x-6--x-6--6-----------------------6--x-6--x-6--x-6--6---------------|
A#-6--x-6--x-6--x-6--6-----------------------6--x-6--x-6--x-6--6--12-12-10-12--|
                                   I am caught beneath!

CHORUS 2:
Guitar 1 Rhythm: (2:08 - 2:28)
C---------------------------------------------------------------------------------------|
G---------------------------------------------------------------------------------------|
D#--------------------------------------------------------------------------------------|
A#-0---0---0---0---0-----8---8---8---8---8-----5---5---5---5---5-----8---8---8---8---8--|
F--0---0---0---0---0-----8---8---8---8---8-----5---5---5---5---5-----6---6---6---6---6--| 
A#-0---0---0---0---0-----8---8---8---8---8-----5---5---5---5---5-----5---5---5---5---5--|
             Light the way and let me..        go..                  Suffocate inside!
             I will break and watch you..      crawl..               Bury me alive!

Guitar 2 Lead: (2:08 - 2:28)
C--10--------------------13--------------------15---------------------------------------|
G--x--x16----------------x--x16----------------x---------------------10-----------------|
D#-7---------------------10--------------------12--------------------x------------------|
A#-------------------------------------------------------------------7------------------|
F---------------------------------------------------------------------------------------|
A#--------------------------------------------------------------------------------------|


BRIDGE:
Guitar 1 or 2: (2:29)
C-------------------------------------------------------------------|
G-------------------------------------------------------------------|
D#-------7-7-7-------8-8-8-----5-5-------7-7-7-------8-8-8----------|
A#-------------7-7-7-------6-6-----------------7-7-7--------X-X---X-|
F--5-5-5---------------------------5-5-5--------------------X-X---X-|
A#----------------------------------------------------------X-X---X-|
                                                            CONTROL!

Both Guitars: (2:34 - 2:44) 
C------------------------------------------------------------------|
G------------------------------------------------------------------|
D#-----------------------------------------------------------------|
A#-----------------------------------------------------------------| x2
F--------5-5-5-------6-6-6-----3-3-------0-0-0-------1-1-1-----0-0-|
A#-0-0-0-------7-7-7-------1-1-----0-0-0-------1-1-1-------3-3-----|

(2:45)
C--------------------------------------------------------|
G--------------------------------------------------------|
D#-------------------------------------------------------|
A#-0---0---X-0---x-0---1-----0---0---X-0-----------------|
F--0---0---X-0---x-0---1-----0---0---X-0---------3-------|
A#-0---0---X-0---x-0---1-----0---0---X-0---1p0h1---1p0h1-|

(2:50)
C--------------------------------------------------------|
G--------------------------------------------------------|
D#-----------------------------------------------2-2-2-2-|
A#-0---0---X-0---x-0---1-----0---0---X-0-----------------|
F--0---0---X-0---x-0---1-----0---0---X-0-----------------|
A#-0---0---X-0---x-0---1-----0---0---X-0---1p0h1---------|

(2:55)
C--------------------------------------------------------|
G--------------------------------------------------------|
D#-------------------------------------------------------|
A#-0---0---X-0---x-0---1-----0---0---X-0-----------------|
F--0---0---X-0---x-0---1-----0---0---X-0---------3-------|
A#-0---0---X-0---x-0---1-----0---0---X-0---1p0h1---1p0h1-|
   LIES..                    INSIDE..

(3:01)
C---------------------------------------|
G---------------------------------------|
D#--------------------------------------|
A#-0---0---X-0---x-0---1-----0-x--------|
F--0---0---X-0---x-0---1-----0-x--------|
A#-0---0---X-0---x-0---1-----0-x--------|
   LIES..                    INSIDE!

CHORUS 3:
Guitar 1 Rhythm: (3:06 - 3:26)
C---------------------------------------------------------------------------------------|
G---------------------------------------------------------------------------------------|
D#--------------------------------------------------------------------------------------|
A#-0---0---0---0---0-----8---8---8---8---8-----5---5---5---5---5-----8---8---8---8---8--| x2
F--0---0---0---0---0-----8---8---8---8---8-----5---5---5---5---5-----6---6---6---6---6--| 
A#-0---0---0---0---0-----8---8---8---8---8-----5---5---5---5---5-----5---5---5---5---5--|
             Light the way and let me..        go..                  Suffocate inside!
             I will break and watch you..      crawl..               Bury me alive!

Guitar 2 Lead: (3:06 - 3:26)
C--10--------------------13--------------------15---------------------------------------|
G--x--x16----------------x--x16----------------x--x16----------------10-----------------|
D#-7---------------------10--------------------12--------------------x--x16-------------|
A#-------------------------------------------------------------------7------------------| x2
F---------------------------------------------------------------------------------------|
A#--------------------------------------------------------------------------------------|

Guitar 1 Rhythm: (3:27 - 3:47)
C---------------------------------------------------------------------------------------|
G---------------------------------------------------------------------------------------|
D#-7---7---7---7---7--------------------------------------------------------------------|
A#-x---x---x---x---x-----8---8---8---8---8-----5---5---5---5---5-----8---8---8---8---8--| x2
F--5---5---5---5---5-----8---8---8---8---8-----5---5---5---5---5-----6---6---6---6---6--| 
A#-----------------------8---8---8---8---8-----5---5---5---5---5-----5---5---5---5---5--|
             Light the way and let me..        go..                  Suffocate inside!
             I will break and watch you..      crawl..               Bury me alive!

Guitar 2 Lead: (3:27 - 3:47)
C--10--------------------13--------------------15---------------------------------------|
G--x--x16----------------x--x16----------------x--x16----------------10-----------------|
D#-7---------------------10--------------------12--------------------x--x16-------------|
A#-------------------------------------------------------------------7------------------| x2
F---------------------------------------------------------------------------------------|
A#--------------------------------------------------------------------------------------|


OUTRO:
Guitar 1 Rhythm: (3:48)
C----------------------------------------------------------------|
G----------------------------------------------------------------|
D#---------------------------------------------------------------|
A#---------------------------8-----------------------------------|
F--------0--x-0--x-0-0--x-0--8---6\5-0--x-0--x-0-0--x-0------3h6-|
A#-13p12-0--x-0--x-0-0--x-0--8-------0--x-0--x-0-0--x-0--3h6-----|
                                 Bury me alive!
                         
Guitar 2 Lead: (3:48)
C----------------------------------------------------------------------|
G----------------------------------------------------------------------|
D#---------------------------------------------------------------------|
A#---------------------------------------------------------------------|
F----------------------------------------------------------------------|
A#-------12-12-12-12-12-12-12-x------12-12-12-12-12-12-12-x------------|

Guitar 1 Rhythm: (3:53)
C----------------------------------------------------------------|
G----------------------------------------------------------------|
D#---------------------------------------------------------------|
A#---------------------------8-----------------------------------|
F--6\5---0--x-0--x-0-0--x-0--8---6\5-0--x-0--x-0-0--x-0----------|
A#-------0--x-0--x-0-0--x-0--8-------0--x-0--x-0-0--x-0--7p0-7h8-|
                                 Bury me alive!

Guitar 2 Lead: (3:53)
C----------------------------------------------------------------------|
G----------------------------------------------------------------------|
D#---------------------------------------------------------------------|
A#---------------------------------------------------------------------|
F----------------------------------------------------------------------|
A#-------12-12-12-12-12-12-12-x------12-12-12-12-12-12-12-x------------|

Guitar 1 Rhythm: (3:58)
C--------------------------|
G--------------------------|
D#-------------------------|
A#-------------------------|
F--1p0--0-x-0--x-0-0--x----|
A#-1p0--0-x-0--x-0-0--x----|
                     
Submit corrections

↑ Back to top | Tablatures and chords for acoustic guitar and electric guitar, ukulele, drums are parodies/interpretations of the original songs. You may use it for private study, scholarship, research or language learning purposes only