Home » B » Breaking Benjamin »

Breaking Benjamin - Wish I May Bass

Artists:  A B C D E F G H I J K L M N O P Q R S T U V W X Y Z # 

Wish I May Bass

(ver. 2) Click to play this song!
Breaking Benjamin
 Rating:
4/5 (4 votes)
                I am just one of many 5-string bassists who are sick of transcribing down-tuned 
tabs. I made to save some of you a little time.
Intro
G|-----------------------------|-----------------------------|
D|-----------------------------|-----------------------------|
A|-----------------------------|-----------------------------|
E|-----------------------------|-----------------------------|
B|-2---2---2-------------------|-2---2---2-------------------|

Pre Verse
|-----------------------------|----------------------2------|
|-----------------------------|-----------------------------|
|-----------------------------|-----------------------------|
|-----------------------------|-----------------------------|
|-2---2---2--2--2--2----------|-2---2---2--2--2--2----------|

|-----------------------------|-----------------------------|
|-----------------------------|-------------------0-0-0-----|
|-----------------------------|-----------------------------|
|-----------------------------|-----------------------------|
|-2---2---2--2--2--2----------|-2---2---2--2--2-------------|

Verse
|-----------------------------|-----------------------------|
|-----------------------------|-----------------------------|
|-----------------------------|-----------------------------|
|-----------------------------|-----------------------------|
|-2---2---2--2--2--2----------|-2---2---2--2--2--2--2-------|

Pre-Chorus x2
|-----------------------------|-----------------------------|
|-----------------------------|-0-----0-----0-----0------0--|
|-----------------------------|-----------------------------|
|-2-----2-----2-----2------2--|-----------------------------|
|-----------------------------|-----------------------------|

Chorus
|-----------------------------|-----------------------------|
|-----------4----------------4|-----------4-----------------|
|-2---2---2-----4---4---4--4--|-2---2---2-----4---4-4-2/7542|
|------------4----------------|------------4----------------|
|-----------------------------|-----------------------------|

|-----------------------------|-----------------------------|
|----------------------------4|-----------------------------|
|-0---0---0-----4---4---4--4--|-0---0---0-----4---4--4--4-4-|
|-----------2-4---------------|-----------2-4---------------|
|-----------------------------|-----------------------------|

Bridge x2
|-----------------------------|-----------------------------|
|-----------------------------|-----------------------------|
|-----------x3----------------|-----------------------------|
|-2--2--2--2--2--2------------|-----------------------------|
|-----------------------------|-3---3---3---3-----3---------|

Guitar Solo
|-----------------------------|-----------------------------|
|-----------------------------|-----------------------------|
|------------x3----------0----|-----------------------------|
|-2----2--2--2----------------|-2----2--2--2-----------0----|
|------------------3----------|------------------3----------|

Outro
|-----------------------------|-----------------------------|
|-----------------------------|-----------------------------|
|------------x3---------------|-----------------------------|
|-----------------------------|-----------------------------|
|-0-----0-----0-----0---------|-0-----0-----0-----0-1-1-1-0-|
            
Submit corrections

↑ Back to top | Tablatures and chords for acoustic guitar and electric guitar, ukulele, drums are parodies/interpretations of the original songs. You may use it for private study, scholarship, research or language learning purposes only