Home » B » Breaking Benjamin »

Breaking Benjamin - Wish I May Bass

Artists:  A B C D E F G H I J K L M N O P Q R S T U V W X Y Z # 

Wish I May Bass

(ver. 1) Click to play this song!
Breaking Benjamin
 Rating:
4/5 (4 votes)
                “Wish I May” – Breaking Benjamin
Tuning C#, G#, C#, F#


Intro x2

F#|-----------------------------|-----------------------------|
C#|-----------------------------|-----------------------------|
G#|-----------------------------|-----------------------------|
C#|-0----0----0-----------------|-0----0----0-----------------|

F#|-----------------------------|-----------------------------|
C#|-----------------------------|-----------------------------|
G#|-----------------------------|-----------------------------|
C#|-0----0----0-----------------|-0----0----0-----------------|

Pre-Verse

F#|-----------------------------|-----------------------------|
C#|-----------------------------|--------------------------8--|
G#|-----------------------------|-----------------------------|
C#|-0---0---0--0--0--0----------|-0---0---0--0--0--0--0-------|
       
F#|-----------------------------|-----------------------------|
C#|-----------------------------|-----------------------------|
G#|-----------------------------|-------------------6--6--6---|
C#|-0---0---0--0--0--0----------|-0---0---0--0--0-------------|

Verse

F#|-----------------------------|-----------------------------|
C#|-----------------------------|-----------------------------|
G#|-----------------------------|-----------------------------|
C#|-0---0---0--0--0--0----------|-0---0---0--0--0--0--0-------|

F#|-----------------------------|-----------------------------|
C#|-----------------------------|-----------------------------|
G#|-----------------------------|-----------------------------|
C#|-0---0---0--0--0--0----------|-0---0---0--0--0--0--0-------|

F#|-----------------------------|-----------------------------|
C#|-----------------------------|-----------------------------|
G#|-----------------------------|-----------------------------|
C#|-0---0---0--0--0--0----------|-0---0---0--0--0--0--0-------|

F#|-----------------------------|-----------------------------|
C#|-----------------------------|-----------------------------|
G#|-----------------------------|-----------------------------|
C#|-0---0---0--0--0--0----------|-0---0---0--0--0--0--0-------|

Pre-Chorus x2

F#|-----------------------------|-----------------------------|
C#|-----------------------------|-----------------------------|
G#|-----------------------------|-6-----6-----6-----6------6--|
C#|-5-----5-----5-----5------5--|-----------------------------|

Chorus 

F#|-----------------------------|-----------------------------|
C#|-----------5----------------5|-----------5-----------------|
G#|-3---3---3--0--5---5---5--5--|-3---3---3--0--5---5-5-5/8653|
C#|-----------------------------|-----------------------------|

F#|-----------------------------|-----------------------------|
C#|----------------------------5|-----------------------------|
G#|-1---1---1--0--5---5---5--5--|-1---1---1--0--5---5--5--5-5-|
C#|-----------5-----------------|-----------5-----------------|

Intro (only once)

Perverse

Verse

Chorus

Bridge x2

F#|-----------------------------|-----------------------------|
C#|-----------------------------|-----------------------------|
G#|-----------------------------|-----------------------------|
C#|-5--5--5--5--5--5------------|-5--5--5--5--5--5------------|

F#|-----------------------------|-----------------------------|
C#|-----------------------------|-----------------------------|
G#|-----------------------------|-----------------------------|
C#|-5--5--5--5--5--5------------|-1---1---1---1-----1---------|

During Guitar Solo x2

F#|-----------------------------|-----------------------------|
C#|-----------------------------|-----------------------------|
G#|-----------------------------|-----------------------------|
C#|-5----5--5--5-----1-----8----|-5----5--5--5-----1-----8----|

F#|-----------------------------|-----------------------------|
C#|-----------------------------|-----------------------------|
G#|-----------------------------|-----------------------------|
C#|-5----5--5--5-----1-----8----|-5----5--5--5-----1-----3----|

Chorus x2

Intro (only once)

Outro

F#|-----------------------------|-----------------------------|
C#|-----------------------------|-----------------------------|
G#|-----------------------------|-----------------------------|
C#|-0-----0-----0-----0---------|-0-----0-----0-----0---------|

F#|-----------------------------|-----------------------------|
C#|-----------------------------|-----------------------------|
G#|-----------------------------|-----------------------------|
C#|-0-----0-----0-----0---------|-0-----0-----0-----0-1-1-1-0-|
            
Submit corrections

↑ Back to top | Tablatures and chords for acoustic guitar and electric guitar, ukulele, drums are parodies/interpretations of the original songs. You may use it for private study, scholarship, research or language learning purposes only