» » »

Breaking Benjamin - Into The Nothing Tabs

Artists:  A B C D E F G H I J K L M N O P Q R S T U V W X Y Z # 

Into The Nothing Tabs

(ver. 2) Click to play this song!
Breaking Benjamin
 Rating:
4.3/5 (21 vote)

 Into The Nothing lessons Tabs too difficult? Try these video lessons and learn fast
 
                TUNING: Drop C#

Intro: (0:00)
Guitar 1 & 2: DISTORTION
D#----------------------------------------------------------------|
A#----------------------------------------------------------------|
F#----------------------------------------------------------------|
C#------------------------3-3-0-0---------------------------------|
G#-3-2---X-2p0h2---2p0h2-----------3-2---X-2p0h2---2p0h2------3-3-|
C#-3-2---X-2p0h2---2p0h2-----------3-2---X-2p0h2---2p0h2--5-5-----|

D#----------------------------------------------------------------|
A#----------------------------------------------------------------|
F#----------------------------------------------------------------|
C#------------------------3-3-0-0---------------------------------|
G#-3-2---X-2p0h2---2p0h2-----------3-2---X-2p0h2---2p0h2--5-0---2-|
C#-3-2---X-2p0h2---2p0h2-----------3-2---X-2p0h2---2p0h2--5-0---2-|

Verse:
Guitar 1 (0:10-0:49) (Clean Strumming - Not played LIVE) Throughout Verse
D#-----------------------------------------------------------------------------------------|
A#-----------------------------------------------------------------------------------------|
F#-----------------------------------------------------------------------------------------|
C#--9---9---9-9---9---9-12\9---9/10\9---9---9---9-9---9---9-12\9-----12-----14---12---14---|
G#--7---7---7-7---7---7-10\7---7/8-\7---7---7---7-7---7---7-10\7-----10-----12---10---12---|
C#-------------------------------------------------------------------10-----12---10---12---|
              ..Screaming on the inside..

Guitar 2 (0:14-0:29) (harmonics)
D#---------------12+----------------------------------------------|
A#-------7+----------------------12+------------------------------|
F#-5+-------------------------------------------------------------|
C#----------------------------------------------------------------| x2
G#----------------------------------------------------------------|
C#----------------------------------------------------------------|
  -And withered!    Cover up the wounds..
  -The sinner!          Lost the nerve..


Guitar 2 (0:30) (Palm muted)
D#----------------------------------------------------------------|
A#----------------------------------------------------------------|
F#----------------------------------------------------------------|
C#----------------------------------------------------------------|
G#----------------------------------------------------------------|
C#-3\2---2---2-0-2---2-2-2/5p0---0-3\2---2---2-0-2---2-2-2/5p0----|
   * *   *   * * *   * * * * *   * * *   *   * * *   * * * * *
                   Carry the wounded and shut your..

Guitar 2 (0:35) (harmonics)
D#---------------12+----------------------------------------------|
A#-------7+----------------------12+------------------------------|
F#----------------------------------------12+---------------------|
C#----------------------------------------------------------------|
G#----------------------------------------------------------------|
C#----------------------------------------------------------------|
     -Eyes!         All will be forgiven..

Guitar 2 (0:40) (Palm muted)
D#----------------------------------------------------------------|
A#----------------------------------------------------------------|
F#----------------------------------------------------------------|
C#----------------------------------------------------------------|
G#----------------------------------------------------------------|
C#-3\2---2---2-2-2---2-2-2/5p0---0-3\2---2---2-0-2---2-2-2/5p0----|
   * *   *   * * *   * * * * *   * * *   *   * * *   * * * * *
                   Bury the fallen and lead the..

Guitar 2 (0:45) (harmonics)
D#---------------12+------------------------------5+--------------|
A#-------7+----------------------12+------------------------------|
F#----------------------------------------12+---------------------|
C#----------------------------------------------------------------|
G#----------------------------------------------------------------|
C#----------------------------------------------------------------|
       Blind!       I will find..           Dead inside!

Chorus: (0:50-1:10)
Guitar 1
D#---------------------------------------------------------------------|
A#---------------------------------------------------------------------|
F#-------------------------------------5---5---5-5-5-5-4-4-4-4-4-4/8---|
C#-2---2---2-2-2-2---5---5---5-5-5-5---5---5---5-5-5-5-4-4-4-4-4-4/8---| x2
G#-2---2---2-2-2-2---5---5---5-5-5-5---3---3---3-3-3-3-2-2-2-2-2-2/6---|
C#-2---2---2-2-2-2---5---5---5-5-5-5-----------------------------------|
           Into the-         Faded and weary.. I won't leave..
           Live for-         Heaven hear me..  I know we..

Guitar 2
D#-------------------------------------------------------------------------------|
A#-----------8-8-8-------------10-10-12-12-12-12-12-13-12-12-10-10-10-10-7-8-7-8-|
F#-9-9-9-9-9-------9-9-9-9-9-9---------------------------------------------------|
C#-------------------------------------------------------------------------------| x2
G#-------------------------------------------------------------------------------|
C#-------------------------------------------------------------------------------|

Post-Chorus: (1:10)
Guitar 1 & 2: DISTORTION
D#----------------------------------------------------------------|
A#----------------------------------------------------------------|
F#----------------------------------------------------------------|
C#------------------------3-3-0-0---------------------------------|
G#-3-2---X-2p0h2---2p0h2-----------3-2---X-2p0h2---2p0h2------3-3-|
C#-3-2---X-2p0h2---2p0h2-----------3-2---X-2p0h2---2p0h2--5-5-----|

D#----------------------------------------------------------------|
A#----------------------------------------------------------------|
F#----------------------------------------------------------------|
C#------------------------3-3-0-0---------------------------------|
G#-3-2---X-2p0h2---2p0h2-----------3-2---X-2p0h2---2p0h2--5-0---2-|
C#-3-2---X-2p0h2---2p0h2-----------3-2---X-2p0h2---2p0h2--5-0---2-|


Verse 2:
Guitar 1 (1:25-1:40) (Clean Strumming - Not played LIVE) Throughout Verse
D#-----------------------------------------------------------------------------------------|
A#-----------------------------------------------------------------------------------------|
F#-----------------------------------------------------------------------------------------|
C#--9---9---9-9---9---9-12\9---9/10\9---9---9---9-9---9---9-12\9-----12-----14---12---14---|
G#--7---7---7-7---7---7-10\7---7/8-\7---7---7---7-7---7---7-10\7-----10-----12---10---12---|
C#-------------------------------------------------------------------10-----12---10---12---|


Guitar 2 (harmonics)
D#---------------12+----------------------------------------------| 
A#-------7+----------------------12+------------------------------|
F#-5+-------------------------------------------------------------|
C#----------------------------------------------------------------| x2
G#----------------------------------------------------------------|
C#----------------------------------------------------------------|
 ..Forever!       ..Letters from the dead.. say goodbye!
 ..Last time      ..Days begin to end.. ..I'll get bye!

Guitar 2 (1:41)
D#----------------------------------------------------------------|
A#----------------------------------------------------------------|
F#----------------------------------------------------------------|
C#----------------------------------------------------------------|
G#----------------------------------------------------------------|
C#-3\2---2---2-0-2---2-2-2/5p0---0-3\2---2---2-0-2---2-2-2/5p0----|
   * *   *   * * *   * * * * *   * * *   *   * * *   * * * * *
                 ..Follow the hopeless and shut your..

Guitar 2 (1:46) (harmonics)
D#---------------12+----------------------------------------------|
A#-------7+----------------------12+------------------------------|
F#----------------------------------------12+---------------------|
C#----------------------------------------------------------------|
G#----------------------------------------------------------------|
C#----------------------------------------------------------------|
     -Eyes!         All will be abandoned..

Guitar 2 (1:51)
D#----------------------------------------------------------------|
A#----------------------------------------------------------------|
F#----------------------------------------------------------------|
C#----------------------------------------------------------------|
G#----------------------------------------------------------------|
C#-3\2---2---2-0-2---2-2-2/5p0---0-3\2---2---2-0-2---2-2-2/5p0----|
   * *   *   * * *   * * * * *   * * *   *   * * *   * * * * *
                 ..Gather the broken and leave this..

Guitar 2 (1:56) (harmonics)
D#---------------12+------------------------------5+--------------|
A#-------7+----------------------12+------------------------------|
F#----------------------------------------12+---------------------|
C#----------------------------------------------------------------|
G#----------------------------------------------------------------|
C#----------------------------------------------------------------|
      ..Life!       Lying in the earth side by side!


CHORUS: (2:01-2:21)
Guitar 1
D#---------------------------------------------------------------------|
A#---------------------------------------------------------------------|
F#-------------------------------------5---5---5-5-5-5-4-4-4-4-4-4/8---|
C#-2---2---2-2-2-2---5---5---5-5-5-5---5---5---5-5-5-5-4-4-4-4-4-4/8---| x2
G#-2---2---2-2-2-2---5---5---5-5-5-5---3---3---3-3-3-3-2-2-2-2-2-2/6---|
C#-2---2---2-2-2-2---5---5---5-5-5-5-----------------------------------|
           Into the-         Faded and weary.. I won't leave..
           Live for-         Heaven hear me..  I know we..

Guitar 2
D#-------------------------------------------------------------------------------|
A#-----------8-8-8-------------10-10-12-12-12-12-12-12-12-12-10-10-10-10-7-8-7-8-|
F#-9-9-9-9-9-------9-9-9-9-9-9---------------------------------------------------|
C#-------------------------------------------------------------------------------| x2
G#-------------------------------------------------------------------------------|
C#-------------------------------------------------------------------------------|

Bridge:
Guitar 1 (2:22-2:41)
D#-------------------------------------------------------------------|
A#-------------------------------------------------------------------|
F#-5---5---5-5-5-5-------------------5---5---5-5-5-5-----------------|
C#-5---5---5-5-5-5---2---2---2-2-5---5---5---5-5-5-5-5-5-5-5-0-0-0-0-| x2
G#-3---3---3-3-3-3---2---2---2-2-5---3---3---3-3-3-3-5-5-5-5-0-0-0-0-|
C#-------------------2---2---2-2-5-------------------5-5-5-5-0-0-0-0-|
           I'll keep you..     ..inside!     As my breath grows..

Guitar 2 (2:22-2:41)
D#-----------------------------------------------------------------------------------------|
A#-------------------------------------------13-13-13-13-13-12-12-12----10----10----8----8-|
F#-9-9-9-9-9-9-9-9--12-12-12-12-12-12-12-12--------------------------12----12----11---11---|
C#-----------------------------------------------------------------------------------------| x2
G#-----------------------------------------------------------------------------------------|
C#-----------------------------------------------------------------------------------------|

Guitar 1 (2:42)
D#-----------------------------------------|
A#-----------------------------------------|
F#-5-5-5-5-5-5-5-5---4-4-4-4-4-4-----------|
C#-5-5-5-5-5-5-5-5---4-4-4-4-4-4---X-0-----|
G#-3-3-3-3-3-3-3-3---2-2-2-2-2-2---X-0-----|
C#---------------------------------X-0-----|

Guitar 2 (2:42)
D#-----------------------------------------|
A#---------------------7---7-7br7----------|
F#-9-9-9-9-9-9-9-9---8---8--------9--------|
C#-----------------------------------------|
G#-----------------------------------------|
C#-----------------------------------------|

Chorus:
Guitar 1 (2:47)
D#---------------------------------------------------------------------|
A#---------------------------------------------------------------------|
F#-------------------------------------5---5---5-5-5-5-4-4-4-4-4-4/8---|
C#-2-----------------5-----------------5---5---5-5-5-5-4-4-4-4-4-4/8---|
G#-2-----------------5-----------------3---3---3-3-3-3-2-2-2-2-2-2/6---|
C#-2-----------------5-------------------------------------------------|
           Into the-         Faded and weary.. I won't leave..
           Live for-         Heaven hear me..  I know we..

Guitar 2 (2:47)
D#---------------------------------------------------------------------------------|
A#-------------------10----------------12-12-12-12-12-13-12-12-10-10-10-10-7-8-7-8-|
F#-9-------------------------------------------------------------------------------|
C#---------------------------------------------------------------------------------|
G#---------------------------------------------------------------------------------|
C#---------------------------------------------------------------------------------|

Guitar 1 (2:57)
D#---------------------------------------------------------------------|
A#---------------------------------------------------------------------|
F#-------------------------------------5---5---5-5-5-5-4-4-4-4-4-4/8---|
C#-2---2---2-2-2-2---5---5---5-5-5-5---5---5---5-5-5-5-4-4-4-4-4-4/8---|
G#-2---2---2-2-2-2---5---5---5-5-5-5---3---3---3-3-3-3-2-2-2-2-2-2/6---|
C#-2---2---2-2-2-2---5---5---5-5-5-5-----------------------------------|
           Live for-         Heaven hear me..  I know we..

Guitar 2 (2:57)
D#-------------------------------------------------------------------------------|
A#-----------8-8-8-------------10-10-12-12-12-12-12-13-12-12-10-10-10-10-7-8-7-8-|
F#-9-9-9-9-9-------9-9-9-9-9-9---------------------------------------------------|
C#-------------------------------------------------------------------------------|
G#-------------------------------------------------------------------------------|
C#-------------------------------------------------------------------------------|

Guitar 1 (3:07)
D#-------------------------------------------------------------------------|
A#-------------------------------------------------------------------------|
F#-------------------5-5-5-5-5-5-5-5---------------------4-4-4-4-4-4-------|
C#-2---2-2-2-2-2-2---5-5-5-5-5-5-5-5---5---5-5-5-5-5-5---4-4-4-4-4-4-X-0---| 
G#-2---2-2-2-2-2-2---3-3-3-3-3-3-3-3---5---5-5-5-5-5-5---2-2-2-2-2-2-X-0---|
C#-2---2-2-2-2-2-2---------------------5---5-5-5-5-5-5---------------X-0---|
           Stay with me your all I have left!          We can make it..!

Guitar 2 (3:07)
D#---------------------------------------------------------------------------------|
A#-----------7-7-7------------10-10-10-12-12-12-12-12-13-12-12-10-10-10-10-7-8-7-8-|
F#-9-9-9-9-9--------9-9-9-9-9------------------------------------------------------|
C#---------------------------------------------------------------------------------|
G#---------------------------------------------------------------------------------|
C#---------------------------------------------------------------------------------|

Guitar 1 (3:17)
D#-------------------------------------------------------------------------|
A#-------------------------------------------------------------------------|
F#-------------------5-5-5-5-5-5-5-5---------------------4-4-4-4-4-4-4-4---|
C#-2---2-2-2-2-2-2---5-5-5-5-5-5-5-5---5---5-5-5-5-5-5---4-4-4-4-4-4-4-4---| 
G#-2---2-2-2-2-2-2---3-3-3-3-3-3-3-3---5---5-5-5-5-5-5---2-2-2-2-2-2-2-2---|
C#-2---2-2-2-2-2-2---------------------5---5-5-5-5-5-5---------------------|
           Stay with me your all I have left!          We can make it..!

Guitar 2 (3:17)
D#---------------------------------------------------------------------------------|
A#-----------7-7-7------------10-10-10-12-12-12-12-12-13-12-12-10-10-10-10-7-8-7-8-|
F#-9-9-9-9-9--------9-9-9-9-9------------------------------------------------------|
C#---------------------------------------------------------------------------------|
G#---------------------------------------------------------------------------------|
C#---------------------------------------------------------------------------------|

Outro:
Guitar 1 (3:27)
D#--------------------------------------------------------------------------|
A#--------------------------------------------------------------------------|
F#-5-5-5-5-5-5--------------------------------------------------------------|
C#-5-5-5-5-5-5---0-0-0-0-2---2---X-0---2---2---X-0-----10---10---10---------|
G#-3-3-3-3-3-3---0-0-0-0-2---2---X-0---2---2---X-0-----10---10---10---------|
C#---------------0-0-0-0-2---2---X-0---2---2---X-0-----10---10---10---------|


Guitar 2 (3:27)
D#--------------------------------------------------------------------------|
A#----------------------------------------------------------------3---0-----|
F#-9-9-9-9-9-9---14-14-14-14-12---12---X-11--12---12---X-11---0-------------|
C#---------------x--x--x--x--x----x----X-x---x----x----X-x------------------|
G#---------------12-12-12-12-10---10---X-9---10---10---X-9------------------|
C#--------------------------------------------------------------------------|            
Submit corrections


        Into The Nothing lessons Hard to play? Try these video lessons and learn fast Into The Nothing lessons
        
↑ Back to top | Tablatures and chords for acoustic guitar and electric guitar, ukulele, drums are parodies/interpretations of the original songs. You may use it for private study, scholarship, research or language learning purposes only