Home » B » Breaking Benjamin »

Breaking Benjamin - Into The Nothing Bass

Artists:  A B C D E F G H I J K L M N O P Q R S T U V W X Y Z # 

Into The Nothing Bass

(ver. 1) Click to play this song!
Breaking Benjamin
 Rating:
4/5 (4 votes)
                -------------------------------------------------------------------------------
	Into the Nothing - Breaking Benjamin
-------------------------------------------------------------------------------

Tuning: Db Ab Db Gb

Intro
Gb|-------------------------------------------------|
Db|----------------3-3-0-0--------------------------|
Ab|---------------------------------------------5-3-|
Db|-3-2---202---000-------3-2---202---000---5-0-----|

Gb|---------------------------------------------|
Db|----------------3-3-0-0----------------------|
Ab|---------------------------------------------|
Db|-3-2---202---000-------3-2---202---000---5-0-|

Verse 
Gb|--------------------------------------------------------------------7~-|
Db|-------------------------------------------------5~--7~---------7~-----|
Ab|-------------------------------------------3--3-3---------5--5-5-------|
Db|-3-2--0-2-2-0--3-2-0--3-2--0-2-2-0--3-2-0------------------------------|x4

Chorus
Gb|--------------------------------------------------------|
Db|----2------------5--------------------------------------|
Ab|---------------------------3--3--33-3-3-2-2-2-2-2-2-2-2-|
Db|-2-----22-2-2-5-----55-5-5------------------------------|x2

Gb|-------------------------------------------------|
Db|----------------3-3-0-0--------------------------|
Ab|---------------------------------------------5-3-|
Db|-3-2---202---000-------3-2---202---000---5-0-----|

Gb|---------------------------------------------|
Db|----------------3-3-0-0----------------------|
Ab|---------------------------------------------|
Db|-3-2---202---000-------3-2---202---000---5-0-|

Verse 
Gb|--------------------------------------------------------------------7~-|
Db|-------------------------------------------------5~--7~---------7~-----|
Ab|-------------------------------------------3--3-3---------5--5-5-------|
Db|-3-2--0-2-2-0--3-2-0--3-2--0-2-2-0--3-2-0------------------------------|x4

Chorus
Gb|--------------------------------------------------------|
Db|----2------------5--------------------------------------|
Ab|---------------------------3--3--33-3-3-2-2-2-2-2-2-2-2-|
Db|-2-----22-2-2-5-----55-5-5------------------------------|x2

Bridge
Gb|------------------------------------------------------|
Db|----3-2-----------------------------------------------|
Ab|-------3-2-0-------------3--3--33-3-3-5-5-5-5-5-5-5-5-|
Db|-5-----------3--3--2--2-------------------------------|x2

Gb|-------------------------------------------------------------------------|
Db|-------------------------------------------------------------------------|
Ab|-3-3-3-3-3-3-3-3-2-2-2-2-2-2-2-2------------3--3--33-3-3-2-2-2-2-2-2-2-2-|
Db|---------------------------------2----5----------------------------------|

Chorus
Gb|--------------------------------------------------------|
Db|----2------------5--------------------------------------|
Ab|---------------------------3--3--33-3-3-2-2-2-2-2-2-2-2-|
Db|-2-----22-2-2-5-----55-5-5------------------------------|x2

Gb|--------------------------------------------------------|
Db|----2-------------------------5-------------------------|
Ab|--------------3--3--33-3-3--------------2-2-2-2-2-2-2-2-|
Db|-2-----22-2-2--------------5-----55-5-5-----------------|x2

Outro
Gb|-------------------------------------------|
Db|-------------------------------------------|
Ab|-3-3-3-3-3-3-3-3----------------------3--3-|
Db|-----------------2-2-x2---2-2-x2---2-------|


| /  slide up
| \  slide down
| h  hammer-on
| p  pull-off
| ~  let note ring
| +  harmonic
| x  Mute note
===============================================================================
            
Submit corrections

↑ Back to top | Tablatures and chords for acoustic guitar and electric guitar, ukulele, drums are parodies/interpretations of the original songs. You may use it for private study, scholarship, research or language learning purposes only