» » »

Breaking Benjamin - Hopeless Tabs

Artists:  A B C D E F G H I J K L M N O P Q R S T U V W X Y Z # 

Hopeless Tabs

(ver. 3) Click to play this song!
Breaking Benjamin
 Rating:
4.5/5 (20 votes)

 Hopeless lessons Tabs too difficult? Try these video lessons and learn fast
 
                Intro: (0:07 - 0:18)
D-------------------------------------------------------------------------------|
A-------------------------------------------------------------------------------|
F-------------------------------------------------------------------------------|
C-------------------------------------------------------------------------------|
G-------------------------------------------------------------------------1-1-1-|
C-0h1p0-7--x-10-7h8--11p0--7h8--0h3-8\7---0h1p0-7--x-10-7h8--11p0--7h8p0--1-1-1-|

D---------------------------------------------------------------------------------|
A---------------------------------------------------------------------------------|
F---------------------------------------------------------------------------------|
C-------------------------------------------------------------------------3---0---|
G-------------------------------------------------------------------------3---0---|
C-0h1p0-7--x-10-7h8--11p0--7h8--0h3-8\7---0h1p0-7--x-10-7h8--11p0--7h8p0--3---0---|


Verse: (0:32)
D----------------------------------------------------------------------------------------------|
A----------------------------------------------------------------------------------------------|
F----------------------------------------------------------------------------------------------|
C----------------------------------------------------------------------------------------------|
G-0--0---0--0----------8--8---8--8----------3--3---3--3----------7--7---7--7-----------8p0-----|
C-0--0---0--0----------8--8---8--8----------3--3---3--3----------7--7---7--7-----7p0h7-----0h7-|
  *  *   *  *          *  *   *  *          *  *   *  *          *  *   *  *

Pre-Chorus: (0:41)
D--------------------------------------------------------------------------|
A--------------------------------------------------------------------------|
F--------------------------------------------------------------------------|
C--------------------------------------------------------------------------|
G-8-8-8-8-8-8-8-8-8-8-8-8-8-8-8-8---10-10-10-10-10-10-10-10---0h7-p-0h8p7--|
C-8-8-8-8-8-8-8-8-8-8-8-8-8-8-8-8---10-10-10-10-10-10-10-10---0h7-p-0h8p7--|


Chorus: (0:46-1:08) PLAY TWICE
D-----------------------------------------------------------------------------------|
A-----------------------------------------------------------------------------------|
F-----------------------------------------------------------------------------------|
C-0--0--0-----------------------------------0--0--0---------------------------------|
G-0--0--0---8-8-8-8-8------------8p7--------0--0--0---8-8-8-8-8------------8p7------|
C-0--0--0---------------12p10p0------10p7---0--0--0---------------12p10p0------10p7-|
  HOPELESS!                                GUILTY!

D------------------------------------------------------|
A------------------------------------------------------|
F------------------------------------------------------|
C-8-----8--8---8---8-----10-----10--10---0h7---0h8p7---|
G-8-----8--8---8---8-----10-----10--10---0h7---0h8p7---|
C-8-----8--8---8---8-----10-----10--10---0h7---0h8p7---|


Post-chorus: (1:09)
D-------------------------------------------|
A-------------------------------------------|
F-------------------------------------------|
C-------------------------------------------|
G-------------------------------------------|
C-0h1p0-7--x-10-7h8--11p0--7h8--13-13-13-13-|

D-------------------------------------------------------------------------------|
A-------------------------------------------------------------------------------|
F-------------------------------------------------------------------------------|
C-------------------------------------------------------------------------------|
G-------------------------------------------------------------------------1-1-1-|
C-0h1p0-7--x-10-7h8--11p0--7h8--0h3-8\7---0h1p0-7--x-10-7h8--11p0--7h8p0--1-1-1-|

D---------------------------------------------------------------------------------|
A---------------------------------------------------------------------------------|
F---------------------------------------------------------------------------------|
C-------------------------------------------------------------------------3---0---|
G-------------------------------------------------------------------------3---0---|
C-0h1p0-7--x-10-7h8--11p0--7h8--0h3-8\7---0h1p0-7--x-10-7h8--11p0--7h8p0--3---0---|

Verse 2: (1:34)
D----------------------------------------------------------------------------------------------|
A----------------------------------------------------------------------------------------------|
F----------------------------------------------------------------------------------------------|
C----------------------------------------------------------------------------------------------|
G-0--0---0--0----------8--8---8--8----------3--3---3--3----------7--7---7--7-----------8p0-----|
C-0--0---0--0----------8--8---8--8----------3--3---3--3----------7--7---7--7-----7p0h7-----0h7-|
  *  *   *  *          *  *   *  *          *  *   *  *          *  *   *  *

Pre-Chorus: (1:45)
D--------------------------------------------------------------------------|
A--------------------------------------------------------------------------|
F--------------------------------------------------------------------------|
C--------------------------------------------------------------------------|
G-8-8-8-8-8-8-8-8-8-8-8-8-8-8-8-8---10-10-10-10-10-10-10-10---0h7-p-0h8p7--|
C-8-8-8-8-8-8-8-8-8-8-8-8-8-8-8-8---10-10-10-10-10-10-10-10---0h7-p-0h8p7--|


Chorus: (1:51 - 2:12) PLAY TWICE
D-----------------------------------------------------------------------------------|
A-----------------------------------------------------------------------------------|
F-----------------------------------------------------------------------------------|
C-0--0--0-----------------------------------0--0--0---------------------------------|
G-0--0--0---8-8-8-8-8------------8p7--------0--0--0---8-8-8-8-8------------8p7------|
C-0--0--0---------------12p10p0------10p7---0--0--0---------------12p10p0------10p7-|

D------------------------------------------------------|
A------------------------------------------------------|
F------------------------------------------------------|
C-8-----8--8---8---8-----10-----10--10---0h7---0h8p7---|
G-8-----8--8---8---8-----10-----10--10---0h7---0h8p7---|
C-8-----8--8---8---8-----10-----10--10---0h7---0h8p7---|

Bridge: (2:13)
D--------------------------------------------------------------------------------|
A--------------------------------------------------------------------------------|
F--------------------------------------------------------------------------------|
C--------------------------------------------------------------------------------| x2
G-------3-----------3---------------------------3----------3---------------------|
C-0h1p0---0--x--1p0---0--x-0--x-0h1--/7---0h1p0---0--x-1p0---1p0--1h3--4\3--1h3--|

D-----------------------------------------------------------------------|
A-----------------------------------------------------------------------|
F-3---3---3---3---3---3---3---3---2---2---2---2-------------------------|
C-1-----------------------------------------------1-1-1-1-1-1-1-1-1-1-1-|
G-1---------------------------------------------------------------------|
C-1---------------------------------------------------------------------|
 (hold barre chord until -------------------->)

Chorus 2: (2:30-2:52) PLAY TWICE
D-----------------------------------------------------------------------------------|
A-----------------------------------------------------------------------------------|
F-----------------------------------------------------------------------------------|
C-0--0--0-----------------------------------0--0--0---------------------------------|
G-0--0--0---8-8-8-8-8------------8p7--------0--0--0---8-8-8-8-8------------8p7------|
C-0--0--0---------------12p10p0------10p7---0--0--0---------------12p10p0------10p7-|
  HOPELESS!                                GUILTY!

D------------------------------------------------------|
A------------------------------------------------------|
F------------------------------------------------------|
C-8-----8--8---8---8-----10-----10--10---0h7---0h8p7---|
G-8-----8--8---8---8-----10-----10--10---0h7---0h8p7---|
C-8-----8--8---8---8-----10-----10--10---0h7---0h8p7---|

Outro: (2:53)
D---------------------------------------------------------------------------|
A---------------------------------------------------------------------------|
F---------------------------------------------------------------------------|
C---------------------------------------------------------------------------| x2
G---------------------------------------------------------------------------|
C-0h1p0-7--x--8-7-0-11-8-0-7-10-0-7-11--0h1p0-7--x--8-7-0-11-8-0-7-8-0-7p3--|

D-----|
A-----|
F-----|
C-0---| fade out
G-0---|
C-0---|            
Submit corrections


        Hopeless lessons Hard to play? Try these video lessons and learn fast Hopeless lessons
        
↑ Back to top | Tablatures and chords for acoustic guitar and electric guitar, ukulele, drums are parodies/interpretations of the original songs. You may use it for private study, scholarship, research or language learning purposes only