Home » B » Breaking Benjamin »

Breaking Benjamin - Hopeless Bass

Artists:  A B C D E F G H I J K L M N O P Q R S T U V W X Y Z # 

Hopeless Bass

(ver. 1) Click to play this song!
Breaking Benjamin
 Rating:
4/5 (4 votes)
                TUNING : C G C F


INTRO
|-----------------------------------|
|-----------------------------------|
|-----------------------------------|
|-0-1-0-7-0-10-7-8-11-0-7-8-0-3/8-7-|

|-----------------------------------|
|-----------------------------------|
|-----------------------------------|
|-0-1-0-7-0-10-7-8-11-0-7-8-0-1-1-1-|

|-----------------------------------|
|-----------------------------------|
|-----------------------------------|
|-0-1-0-7-0-10-7-8-11-0-7-8-0-3/8-7-|

|--------------------------------|
|--------------------------------|
|--------------------------------|
|-0-1-0-7-0-10-7-8-11-0-7-8-0-3--|

VERSE
|--------------------------------------------------------|
|--------------------------------------------------------|
|--------------------------------------------------------|
|-0-0---------------8--8---------------------3--3--------|
      HERE I LAY FOREVER    SORROW STILL REMAINS

|---------------------------------------------------|
|---------------------------------------------------|
|---------------------------------------------------|
|--------------------------7--7---------------------|
   WILL THE WATER PULL ME DOWN AND WASH IT ALL AWAY

|------------------------------------------------------------|
|------------------------------------------------------------|
|------------------------------------------------------------|
|-0-0--0--------------------8-8--8------------------3-3--3---|
          COME AND TAKE ME OVER    WELCOME TO THE GAME

|----------------------------------------------------|
|----------------------------------------------------|
|-------------------------------------------8-7------|
|-------------------------7-7--7------7-0-7-----10-7-|
WILL THE CURRENT DRAG ME DOWN   AND CARRY ME AWAY

PRE CHORUS
|-----------------------------------------------------------------------|
|-----------------------------------------------------------------------|
|-----------------------------------------------------------------------|
|-8-8-8-8-8-8-8-8-8-8-8-8-8-8-8-8-10-10-10-10-10-10-10-10-0-7--7-8-7--7-|

CHORUS
|------------------------------------------------------------|
|------------------3---------------------------------3-------|
|------8/----5-3-5---5-3-0---------------------5-3-5---5-3-0-|
|-0--0-----------------------0-0-0---------------------------|
  HOPELESS                   FILTHY

|---------------------------------------------------|
|---------------------------------------------------|
|---------------------------------------------------|
|-8--8-8-8--8--8-8--8-8-10--10-10-10--0-7--7-8-7--7-|

|------------------------------------------------------------|
|------------------3---------------------------------3-------|
|------8/----5-3-5---5-3-0---------------------5-3-5---5-3-0-|
|-0--0-----------------------0-0-0---------------------------|
  WORTHLESS                  GUILTY
|---------------------------------------------------|
|---------------------------------------------------|
|---------------------------------------------------|
|-8--8-8-8--8--8-8--8-8-10--10-10-10--0-7--7-8-7--7-|

NO BASS DURING GUITAR FILL

(INTRO)

(VERSE)

(PRE CHORUS)

(CHORUS)

BRIDGE
|---------------------------------------------------------------|
|---------------------------------------------------------------|
|-----3---------3------------0------3---------3-----------------|
|-0-1---0---1-0---1---0--0-1----0-1---0---1-0---1-0-1-3-4-3-1-3-|

|---------------------------------------------------------------|
|---------------------------------------------------------------|
|-----3---------3------------0------3---------3-----------------|
|-0-1---0---1-0---1---0--0-1----0-1---0---1-0---1-0-1-3-4-3-1-3-|

|---------------------------------------------|
|---------------------------------------------|
|---------------------1--1-1--1--666666666666-|
|-1--1-1--1-1--1-1--1-------------------------|

(CHORUS)

OUTRO 
|----------------------------------|
|----------------------------------|
|----------------------------------|
|-0-1-0-3-10-7-0-11-8-0-7-10-0-5-3-|

|----------------------------------|
|----------------------------------|
|----------------------------------|
|-0-1-0-3-10-7-0-11-8-0-7-10-0-5-3-|

|----------------------------------|
|----------------------------------|
|----------------------------------|
|-0-1-0-3-10-7-0-11-8-0-7-10-0-5-3-|

|----------------------------------|
|----------------------------------|
|----------------------------------|
|-0-1-0-3-10-7-0-11-8-0-7-10-0-5-3-|

|------|
|------|
|------|
|-0----|
            
Submit corrections

↑ Back to top | Tablatures and chords for acoustic guitar and electric guitar, ukulele, drums are parodies/interpretations of the original songs. You may use it for private study, scholarship, research or language learning purposes only