» » »

Breaking Benjamin - Give Me A Sign Tabs

Artists:  A B C D E F G H I J K L M N O P Q R S T U V W X Y Z # 

Give Me A Sign Tabs

(ver. 1) Click to play this song!
Breaking Benjamin
 Rating:
4/5 (4 votes)

 Give Me A Sign lessons Tabs too difficult? Try these video lessons and learn fast
 
                I got the master iso guitar tracks for this so this is about 98% correct now.

Guitar 2   79 Bpm

Intro
Eb|-------------------------------------------|--------------------------------------------------|
Bb|-------------------------------------------|-----------------------------------------------15-|
Gb|------11-12------11-12--9---11---12-----14-|-12---------9--------------11-12------12-11----12~|
Db|----9--------0-9-------10---12---14-----16-|----10-9-10---10-9-10----9--------0-9-------------|
Ab|--7----------------------------------------|----------------------10--------------------------|
Db|-------------------------------------------|--------------------------------------------------|

VERSE 1

Rest Four Bars

Eb|--------------------------------------------------3---------------0-------2-3-|
Bb|-------------3-----------------5----------------------------------------------|
Gb|----------0-----------------0-----------------0----------------0-------0------|
Db|------5-----------------4-----------------2-----------------5-----------------|
Ab|--------------------------------------0------------------3-----------3--------|
Db|---5--------------------------------------------------------------------------|

Chorus Play 2x

Eb|-------------------------------------------------------------10--|
Bb|------12--10--12-----12-10----------12--10--12------12--10-------|
Gb|----------------------------12-----------------------------------|
Db|------------------0-------------10--------------10---------------|
Ab|---7-------------------------------------------------------------|
Db|-----------------------------------------------------------------|

Eb|-----------------------------------------------------------------|
Bb|-8-8-8-8-101010101212121213131313101010108-8-8-8-7-7-7-7-10101010|
Gb|-x-x-x-x-x-x-x-x-x-x-x-x-x-x-x-x-x-x-x-x-x-x-x-x-x-x-x-x-x-x-x-x-|
Db|-5-5-5-5-7-7-7-7-9-9-9-9-101010107-7-7-7-5-5-5-5-4-4-4-4-7-7-7-7-|
Ab|-----------------------------------------------------------------|
Db|-----------------------------------------------------------------|

b|-------------------------------------------------10---------------|
Bb|------12--10--12-----12-10----------12--10--12------12--10--12---|
Gb|----------------------------12-----------------------------------|
Db|------------------0--------------10------------------------------|
Ab|----7------------------------------------------------------------|
Db|-----------------------------------------------------------------|

Eb|-----------------------------------------------------------------|
Bb|-8-8-8-8-101010101212121213131313101010108-8-8-8-7-7-7-7-10101010|
Gb|-x-x-x-x-x-x-x-x-x-x-x-x-x-x-x-x-x-x-x-x-x-x-x-x-x-x-x-x-x-x-x-x-|
Db|-5-5-5-5-7-7-7-7-9-9-9-9-101010107-7-7-7-5-5-5-5-4-4-4-4-7-7-7-7-|
Ab|-----------------------------------------------------------------|
Db|-----------------------------------------------------------------|

Post Chorus

Eb|-----------------------------------------------------------------|
Bb|------12--10--12-----12-10-------10-12--13-----------------------|
Gb|---------------------------12--0--------12-----------------------|
Db|------------------0---------------------10-----------------------|
Ab|---7------------------------------------10-----------------------|
Db|----------------------------------------10-----------------------|

Eb|-----------------------------------------------------------------|
Bb|---------------------------------------------------10------------|
Gb|------12--11--12------12---11-12------12--11--12-------12--11----|
Db|-----------------------------------0--------------------------12-|
Ab|--10-------------------------------------------------------------|
Db|-----------------------------------------------------------------|

Repeat Intro

Verse 2

Eb|------------------------------------------------------------------------------|
Bb|-------------3-----------------3------------------1---------------3-----------|
Gb|----------0-----------------0-----------------0----------------0--------------|
Db|------5-----------------4-----------------2-----------------5--------------0--|
Ab|---------------------2----------------0------------------3--------------------|
Db|---5--------------------------------------------------------------------------|

Eb|--------------------------------------------------3---------------0-------2-3-|
Bb|-------------3-----------------5----------------------------------------------|
Gb|----------0-----------------0-----------------0----------------0-------0------|
Db|------5-----------------4-----------------2-----------------5-----------------|
Ab|-------------------(2)----------------0------------------3-----------3--------|
Db|---5--------------------------------------------------------------------------|

Repeat Chorus

Bridge

Eb|-------------------------------------------------------------10--|
Bb|-----12--10---12----12--10---------12---10--12------12--10-------|
Gb|-----------------------------12----------------------------------|
Db|-----------------------------------------------------------------|
Ab|--10-------------10--------------7--------------7----------------|
Db|-----------------------------------------------------------------|

Eb|-------------------------------------5----7---5------------------|
Bb|------12--10---12----12--10-------------------7------------------|
Gb|-----------------------------12--0------------7----12---11--12-11|
Db|----------------------------------------------7------------------|
Ab|--10--------------10--------------------------5------------------|
Db|-----------------------------------------------------------------|

With Harmony Guitar

Eb|-------------------------------------------------------------10--|
Bb|-----12--10---12----12--10---------12---10--12------12--10---12--|
Gb|-----12--11---12----12--11---12----12---11--12------12--11-------|
Db|--12-------------12----------14--9--------------9----------------|
Ab|--10-------------10--------------7--------------7----------------|
Db|-----------------------------------------------------------------|

Eb|-------------------------------------------------------------------|
Bb|-----12--10---12----12--10---------10---12--10---------------------|
Gb|-----12--11---12----12--11---12-12-11---12--11-----12---11--12-11-9|
Db|--12-------------12----------14-14---------------------------------|
Ab|--10-------------10------------------------------------------------|
Db|-------------------------------------------------------------------|


Repeat Chorus 

Outro 

Eb|-------------------------------------------------|
Bb|-12-12-12-12-12-12-12-12-10-10-10-10-10-10-10-10-|
Gb|-12-12-12-12-12-12-12-12-12-12-12-12-12-11-11-11-|
Db|-------------------------------------------------|
Ab|-------------------------------------------------|
Db|-------------------------------------------------|

12-12-12-12-12-12-12-12-------------------------|
12-12-12-12-12-12-12-12-13-13-13-13-13-12-12-10-|
------------------------12-12-12-12-12-12-12-12-|
------------------------------------------------|
------------------------------------------------|
------------------------------------------------|


Eb|-----------------------------------------8--8--8-|
Bb|-12-12-12-12-12-10-10-10-10-10-10-10-10-10-10-10-|
Gb|-12-12-12-12-12-12-12-12-11-11-11-11-11----------|
Db|-------------------------------------------------|
Ab|-------------------------------------------------|
Db|-------------------------------------------------|

------------------------------------------------|
-8--8--8--8--8-10-10-10-13-13-13-15-13-12-12-10-|
-9--9--9--9--9--9--9--9-12-12-12-12-12-12-12-12-|2x
------------------------------------------------|
------------------------------------------------|
------------------------------------------------|

Eb|-------------------------------|
Bb|--8-8------1010---------8-7----|
Gb|--x-x-------x-x-------0--------|
Db|--5-5-------7-7-------------10-|
Ab|----------------------------10-|
Db|----------------------------10-|




Guitar 2

Intro
Eb|----------------------------------------------------------------------------------|
Bb|----------------------------------------------------------------------------------|
Gb|----------------------------------------------------------------------------------| 
Db|-2---2---2-00--0--00-7---7--77-7-x9--10--10-10101010-101010-5-5-5-5---0---0-------|
Ab|-2---2---2-00--0--00-7---7--77-7-x10-10--10-10101010-101010-5-5-5-5---0---0-------|
Db|-2---2---2-00--0--00-7---7--77-7-x9--10--10-10101010-101010-5-5-5-5---0---0-4b5r4-|
   
                    
Verse   
Eb|-3--3-33333--3-33------------------0--0-00000--0-00-0--0-00000--0-00-|
Bb|-3--3-33333--3-33-3--3-33333--3-33-1--1-11111--1-11-1--1-11111--1-11-|
Gb|-4--4-44444--4-44-4--4-44444--4-44-2--2-22222--2-22-0--0-00000--0-00-| X2
Db|-5--5-55555--5-55-4--4-44444--4-44-2--2-22222--2-22-2--2-22222--2-22-|
Ab|-5--5-55555--5-55-2--2-22222--2-22-0--0-00000--0-00-3--3-33333--3-33-|
Db|-5--5-55555--5-55----------------------------------------------------|

Chorus 2x
Eb|-----------------------------------------------------------------|
Bb|-----------------------------------------------------------------|
Gb|---------------------------------5-------5----5-5-5-5-5---5--5-5-|
Db|-2---2---2---2---0---0---0---0---5-------5----5-5-5-5-5---5--5-5-|
Ab|-2---2---2---2---0---0---0---0---3-------3----3-3-3-3-3---3--3-3-|
Db|-2---2---2---2---0---0---0---0-----------------------------------|

Eb|-------------------------------------------------------------------|
Bb|-------------------------------------------------------------------|
Gb|-------------------------------------------------------------8-----| 
Db|-5-------5----5-5-5-5-5---5--5-5---0-------0----0-0-0-0-0----7-----|
Ab|-5-------5----5-5-5-5-5---5--5-5---0-------0----0-0-0-0-0----6-----|
Db|-5-------5----5-5-5-5-5---5--5-5---0-------0----0-0-0-0-0----------|

Post Chorus
Eb|---------------------------------------------------------------|
Bb|---------------------------------------------------------------|
Gb|---------------------------------------------5----------5------|
Db|-2---2---2---2---0---0---0---0---5---5-------5----------5------|
Ab|-2---2---2---2---0---0---0---0---5---5-------3----------3------|
Db|-2---2---2---2---0---0---0---0---5---5-------------------------|

Eb|------------------------------------------------------------------|
Bb|------------------------------------------------------------------|
Gb|------------------------------------------------------------------| 
Db|-5-------5----5-5-5-5-5---5--5-5---0-------0---0-0-0-0-0---0--0-0-|
Ab|-5-------5----5-5-5-5-5---5--5-5---0-------0---0-0-0-0-0---0--0-0-|
Db|-5-------5----5-5-5-5-5---5--5-5---0-------0---0-0-0-0-0---0--0-0-|

Repeat Intro, Verse, Chorus

Interlude

Eb|------------------------------------------------------------|
Bb|------------------------------------------------------------|
Gb|-5----5-----5-5-5-5-5---------------------------------------|
Db|-5----5-----5-5-5-5-5----0-----2-----2---2-2-2-2-2------0---|
Ab|-3----3-----3-3-3-3-3----0-----2-----2---2-2-2-2-2------0---|
Db|-------------------------0-----2-----2---2-2-2-2-2------0---|

Eb|------------------------------------------------------------|
Bb|------------------------------------------------------------|
Gb|-5----5-----5-5-5-5-5---5--5-5------------------------------|
Db|-5----5-----5-5-5-5-5---5--5-5-5---5-----0-----0-0---0--0-0-|
Ab|-3----3-----3-3-3-3-3---3--3-3-5---5-----0-----0-0---0--0-0-|
Db|-------------------------------5---5-----0-----0-0---0--0-0-|

Repeat 2x

Eb|--------------------------------------|
Bb|--------------------------------------|
Gb|-5------------------------------------|
Db|-5-------------------------x--x--x--x-|
Ab|-3-------------------------x--x--x--x-|
Db|---------------------------x--x--x--x-|

Repeat Chorus

Bridge

Eb|------------------------------------------------|
Bb|------------------------------------------------|
Gb|------------------------------------------------|
Db|------------------------------------------------|
Ab|-5--5--5--5--5--5--5--5--0--0--0--0--0--0--1--1-|
Db|-5--5--5--5--5--5--5--5--0--0--0--0--0--0--1--1-|
 pm .  .  .  .  .  .  .  .  .  .  .  .  .  .  .  .

Eb|------------------------------------------------|
Bb|------------------------------------------------|
Gb|-------------------------5-----------------5--5-|
Db|-------------------------5--5--5--5--5--5--5--5-|
Ab|-2--2--2--2--2--2--2--2--3--3--3--3--3--3--3--3-|
Db|-2--2--2--2--2--2--2--2-------------------------|
 pm .  .  .  .  .  .  .  .     .  .  .  .  .

Next Part 2x

Eb|------------------------------------------------|
Bb|------------------------------------------------|
Gb|-------------------------------------------8----|
Db|-5--5--5--5--5--5--5--5--0--0--0--0--0--0--7----|
Ab|-5--5--5--5--5--5--5--5--0--0--0--0--0--0--6----|
Db|-5--5--5--5--5--5--5--5--0--0--0--0--0--0-------|

Eb|------------------------------------------------|
Bb|------------------------------------------------|
Gb|-9--9--9--9--9--9--9--9--5--5--5--5--5--5--5--5-|
Db|-9--9--9--9--9--9--9--9--5--5--5--5--5--5--5--5-|
Ab|-7--7--7--7--7--7--7--7--3--3--3--3--3--3--3--3-|
Db|------------------------------------------------|

Outro
Eb|-------------------------------------------------------------|
Bb|-------------------------------------------------------------|
Gb|-----------------------------------------5-------------------|
Db|-2--2--x-x-x-x--0--0--x--x---x--5--5-----5-------------------|
Ab|-2--2--x-x-x-x--0--0--x--x---x--5--5-----3-------------------|
Db|-2--2--x-x-x-x--0--0--x--x---x--5--5-------------------------|




Standard Chords     

Am   |x02210|

B#   |x2000x|

C    |x32010|

Cm5  |x24402|

D    |x00232|

D#   |xx124x|

Em   |022000|

G    |320033|

G7   |320003|

Intro    

        Em-D-Am-B#-       
      
      C-C-G7-D-

Verse      

        G-Cm5-Am-C-(D)-

Chorus    

        Em-D-C-C-

        G-G-D-D#-

PostChorus

        Em-D-G-C-

        G-G-D-D-

Interlude

        C-D-Em-D-\
               | 2x
        C-D-G-D--/

        C--------

Bridge 
        
        G-G-D-D#-

        Em-Em-C-C-

Outro 

        Em-D-G-C-
            
Submit corrections


        Give Me A Sign lessons Hard to play? Try these video lessons and learn fast Give Me A Sign lessons
        
↑ Back to top | Tablatures and chords for acoustic guitar and electric guitar, ukulele, drums are parodies/interpretations of the original songs. You may use it for private study, scholarship, research or language learning purposes only