Home » B » Breaking Benjamin »

Breaking Benjamin - Give Me A Sign Bass

Artists:  A B C D E F G H I J K L M N O P Q R S T U V W X Y Z # 

Give Me A Sign Bass

(ver. 1) Click to play this song!
Breaking Benjamin
 Rating:
4.3/5 (28 votes)
                   [4/4 - Intro]
    1  e  &  a  2  e  &  a  3  e  &  a  4  e  &  a    1  e  &  a  2  e  &  a  3  e  &  a  4  e  &  a
F#|-------------------------------------------------|-------------------------------------------------|
C#|-------------------------------------------------|-------------------------------------------------|
G#|-------------------------------------------------|-0-----------0-----------0-----0--------2--------|
C#|-2-----------2--------2-----0--0-----0-----------|-------------------------------------------------|

    1  e  &  a  2  e  &  a  3  e  &  a  4  e  &  a    1  e  &  a  2  e  &  a  3  e  &  a  4  e  &  a
F#|-------------------------------------------------|-------------------------------------------------|
C#|-------------------------------------------------|-------------------------------------------------|
G#|-3-----------3-----------3-----3-----------3--5--|-------------------------------------------------|
C#|-------------------------------------------------|-5-----5-----5-----5-----0-----0-----4--b--r-----|

   [Verse 1]
    1  e  &  a  2  e  &  a  3  e  &  a  4  e  &  a    1  e  &  a  2  e  &  a  3  e  &  a  4  e  &  a
F#|-------------------------------------------------|-------------------------------------------------|
C#|-------------------------------------------------|-------------------------------------------------|
G#|-------------------------------------------------|-------------------------------------------------|
C#|-5--------------------5--------5-----------------|-9--------------------9--------9-----------------|

    1  e  &  a  2  e  &  a  3  e  &  a  4  e  &  a    1  e  &  a  2  e  &  a  3  e  &  a  4  e  &  a
F#|-------------------------------------------------|-------------------------------------------------|
C#|-------------------------------------------------|-------------------------------------------------|
G#|-------------------------------------------------|-------------------------------------------------|
C#|-7--------------------7--------7-----------7--9--|-10-------------------10-------10----------------|

    1  e  &  a  2  e  &  a  3  e  &  a  4  e  &  a    1  e  &  a  2  e  &  a  3  e  &  a  4  e  &  a
F#|-------------------------------------------------|-------------------------------------------------|
C#|-------------------------------------------------|-------------------------------------------------|
G#|-------------------------------------------------|-------------------------------------------------|
C#|-5--------------------5--------5-----------------|-9--------------------9--------9-----------------|

    1  e  &  a  2  e  &  a  3  e  &  a  4  e  &  a    1  e  &  a  2  e  &  a  3  e  &  a  4  e  &  a
F#|-------------------------------------------------|-------------------------------------------------|
C#|-------------------------------------------------|-------------------------------------------------|
G#|-------------------------------------------------|-------------------------------------------------|
C#|-7--------------------7--------7-----------7--9--|-10-------------------10-------10----------------|

   [Chorus 1]
    1  e  &  a  2  e  &  a  3  e  &  a  4  e  &  a    1  e  &  a  2  e  &  a  3  e  &  a  4  e  &  a
F#|-------------------------------------------------|-------------------------------------------------|
C#|-------------------------------------------------|-------------------------------------------------|
G#|-------------------------------------------------|-3-----------3--------3-----3--3-----3-----3--5--|
C#|-2-----2-----2-----2-----0-----0-----0-----0--0--|-------------------------------------------------|

    1  e  &  a  2  e  &  a  3  e  &  a  4  e  &  a    1  e  &  a  2  e  &  a  3  e  &  a  4  e  &  a
F#|-------------------------------------------------|-------------------------------------------------|
C#|-------------------------------------------------|-------------------------------------------------|
G#|-------------------------------------------------|-------------------------------------------------|
C#|-5-----------5--------5-----5--5-----5-----------|-0-----------0--------0-----0--0-----1-----------|

    1  e  &  a  2  e  &  a  3  e  &  a  4  e  &  a    1  e  &  a  2  e  &  a  3  e  &  a  4  e  &  a
F#|-------------------------------------------------|-------------------------------------------------|
C#|-------------------------------------------------|-------------------------------------------------|
G#|-------------------------------------------------|-3-----------3--------3-----3--3-----3-----3--5--|
C#|-2-----------2-----------0-----0-----0-----------|-------------------------------------------------|

    1  e  &  a  2  e  &  a  3  e  &  a  4  e  &  a    1  e  &  a  2  e  &  a  3  e  &  a  4  e  &  a
F#|-------------------------------------------------|-------------------------------------------------|
C#|-------------------------------------------------|-------------------------------------------------|
G#|-------------------------------------------------|-------------------------------------------------|
C#|-5-----------5--------5-----5--5-----5-----------|-0-----------0--------0-----0--0-----1-----------|

    1  e  &  a  2  e  &  a  3  e  &  a  4  e  &  a    1  e  &  a  2  e  &  a  3  e  &  a  4  e  &  a
F#|-------------------------------------------------|-------------------------------------------------|
C#|-------------------------------------------------|-------------------------------------------------|
G#|-------------------------------------------------|-------------------3-----------------3-----------|
C#|-2-----2-----2-----2-----0-----0-----0-----0-----|-5-----5-----------------------------------------|

    1  e  &  a  2  e  &  a  3  e  &  a  4  e  &  a    1  e  &  a  2  e  &  a  3  e  &  a  4  e  &  a
F#|-------------------------------------------------|-------------------------------------------------|
C#|-------------------------------------------------|-------------------------------------------------|
G#|-------------------------------------------------|-------------------------------------------------|
C#|-5-----------5--------5-----5--5-----5-----------|-0-----------0--------0-----0--0-----0-----------|

   [Intro Riff]
    1  e  &  a  2  e  &  a  3  e  &  a  4  e  &  a    1  e  &  a  2  e  &  a  3  e  &  a  4  e  &  a
F#|-------------------------------------------------|-------------------------------------------------|
C#|-------------------------------------------------|-------------------------------------------------|
G#|-------------------------------------------------|-0-----------0--------0--0-----0--------2--------|
C#|-2-----------2--------2-----0--0-----0-----------|-------------------------------------------------|

    1  e  &  a  2  e  &  a  3  e  &  a  4  e  &  a    1  e  &  a  2  e  &  a  3  e  &  a  4  e  &  a
F#|-------------------------------------------------|-------------------------------------------------|
C#|-------------------------------------------------|-------------------------------------------------|
G#|-3-----------3--------3--3-----3--------3--5-----|-------------------------------------------------|
C#|-------------------------------------------------|-5-----5-----5-----5-----0-----0-----4--b--r-----|

   [Verse 2]
    1  e  &  a  2  e  &  a  3  e  &  a  4  e  &  a    1  e  &  a  2  e  &  a  3  e  &  a  4  e  &  a
F#|-------------------------------------------------|-------------------------------------------------|
C#|-------------------------------------------------|-------------------------------------------------|
G#|-------------------------------------------------|-------------------------------------------------|
C#|-5--------------------5--------5-----------------|-9--------------------9--------9-----------------|

    1  e  &  a  2  e  &  a  3  e  &  a  4  e  &  a    1  e  &  a  2  e  &  a  3  e  &  a  4  e  &  a
F#|-------------------------------------------------|-------------------------------------------------|
C#|-------------------------------------------------|-------------------------------------------------|
G#|-------------------------------------------------|-------------------------------10-10-10----------|
C#|-7--------------------7--------7-----------7--9--|-10-------------------10-------------------------|

    1  e  &  a  2  e  &  a  3  e  &  a  4  e  &  a    1  e  &  a  2  e  &  a  3  e  &  a  4  e  &  a
F#|-------------------------------------------------|-------------------------------------------------|
C#|-------------------------------------------------|-------------------------------------------------|
G#|-------------------------------------------------|-------------------------------------------------|
C#|-5--------------------5--------5-----------------|-9--------------------9--------9-----------------|

    1  e  &  a  2  e  &  a  3  e  &  a  4  e  &  a    1  e  &  a  2  e  &  a  3  e  &  a  4  e  &  a
F#|-------------------------------------------------|-------------------------------------------------|
C#|-------------------------------------------------|-------------------------------------------------|
G#|-------------------------------------------------|-------------------------------------------------|
C#|-7--------------------7--------7-----------7--9--|-10-------------------10-------10----10\\\\\\\\\\|

   [Chorus 2]
    1  e  &  a  2  e  &  a  3  e  &  a  4  e  &  a    1  e  &  a  2  e  &  a  3  e  &  a  4  e  &  a
F#|-------------------------------------------------|-------------------------------------------------|
C#|-------------------------------------------------|-------------------------------------------------|
G#|-------------------------------------------------|-3-----------3--------3-----3--3-----3-----3--5--|
C#|-2-----2-----2-----2-----0-----0-----0-----0--0--|-------------------------------------------------|

    1  e  &  a  2  e  &  a  3  e  &  a  4  e  &  a    1  e  &  a  2  e  &  a  3  e  &  a  4  e  &  a
F#|-------------------------------------------------|-------------------------------------------------|
C#|-------------------------------------------------|-------------------------------------------------|
G#|-------------------------------------------------|-------------------------------------------------|
C#|-5-----------5--------5-----5--5-----5-----------|-0-----------0--------0-----0--0-----1-----------|

    1  e  &  a  2  e  &  a  3  e  &  a  4  e  &  a    1  e  &  a  2  e  &  a  3  e  &  a  4  e  &  a
F#|-------------------------------------------------|-------------------------------------------------|
C#|-------------------------------------------------|-------------------------------------------------|
G#|-------------------------------------------------|-3-----------3--------3-----3--3-----3-----3--5--|
C#|-2-----2-----2-----2-----0-----0-----0-----0-----|-------------------------------------------------|

    1  e  &  a  2  e  &  a  3  e  &  a  4  e  &  a    1  e  &  a  2  e  &  a  3  e  &  a  4  e  &  a
F#|-------------------------------------------------|-------------------------------------------------|
C#|-------------------------------------------------|-------------------------------------------------|
G#|-------------------------------------------------|-------------------------------------------------|
C#|-5-----------5--------5-----5--5-----5-----------|-0-----------0--------0-----0--0-----1-----------|

    1  e  &  a  2  e  &  a  3  e  &  a  4  e  &  a    1  e  &  a  2  e  &  a  3  e  &  a  4  e  &  a
F#|-------------------------------------------------|-------------------------------------------------|
C#|-------------2-----------------------0-----------|-------------------------------------------------|
G#|-------------------------------------------------|-------------------3-----------------3-----------|
C#|-2-----2-----------2-----0-----0-----------0--2--|-5-----5-----------------------------------------|

    1  e  &  a  2  e  &  a  3  e  &  a  4  e  &  a    1  e  &  a  2  e  &  a  3  e  &  a  4  e  &  a
F#|-------------------------------------------------|-------------------------------------------------|
C#|-------------5-----------------------------------|-------------0-----------------------------------|
G#|-------------------------------------------------|-------------------------------------------------|
C#|-5--------------------5-----5--5-----5-----------|-0--------------------0-----0--0-----0-----0--0--|

   [Bridge]
    1  e  &  a  2  e  &  a  3  e  &  a  4  e  &  a    1  e  &  a  2  e  &  a  3  e  &  a  4  e  &  a
F#|-------------------------------------------------|-------------------------------------------------|
C#|-------------------------------------------------|-------------------------------------------------|
G#|-3-----------3--------3--3--3--3-----------------|-------------------------------------------------|
C#|-------------------------------------0-----------|-2-----------2--------2-----2--2-----0-----------|

    1  e  &  a  2  e  &  a  3  e  &  a  4  e  &  a    1  e  &  a  2  e  &  a  3  e  &  a  4  e  &  a
F#|-------------------------------------------------|-------------------------------------------------|
C#|-------------------------------------------------|-------------------------------------------------|
G#|-3-----------3--------3--3--3--3-----3-----------|-------------------------------------------------|
C#|-------------------------------------------------|-5-----5-----------0-----------0-----0-----------|

    1  e  &  a  2  e  &  a  3  e  &  a  4  e  &  a    1  e  &  a  2  e  &  a  3  e  &  a  4  e  &  a
F#|-------------------------------------------------|-------------------------------------------------|
C#|-------------------------------------------------|-------------------------------------------------|
G#|-3-----------3--------3--3--3--3-----------------|-------------------------------------------------|
C#|-------------------------------------0-----------|-2-----------2--------2-----2--2-----0-----------|

    1  e  &  a  2  e  &  a  3  e  &  a  4  e  &  a    1  e  &  a  2  e  &  a  3  e  &  a  4  e  &  a
F#|-------------------------------------------------|-------------------------------------------------|
C#|-------------------------------------------------|-------------------------------------------------|
G#|-3-----------3--------3--3--3--3-----3-----------|-------------------------------------------------|
C#|-------------------------------------------------|-5-----5-----------0-----------0-----0-----------|

                                                    [Chorus 3]
    1  e  &  a  2  e  &  a  3  e  &  a  4  e  &  a    1  e  &  a  2  e  &  a  3  e  &  a  4  e  &  a
F#|-------------------------------------------------|-------------------------------------------------|
C#|-------------------------------------------------|-------------------------------------------------|
G#|-3-----------------------------------------------|-------------------------------------------------|
C#|-------------------------------------------------|-2-----2-----2-----2-----0-----0-----0-----0--0--|

    1  e  &  a  2  e  &  a  3  e  &  a  4  e  &  a    1  e  &  a  2  e  &  a  3  e  &  a  4  e  &  a
F#|-------------------------------------------------|-------------------------------------------------|
C#|-------------------------------------------------|-------------------------------------------------|
G#|-3-----------3--------3-----3--3-----3-----3--5--|-------------------------------------------------|
C#|-------------------------------------------------|-5-----------5--------5-----5--5-----5-----------|

    1  e  &  a  2  e  &  a  3  e  &  a  4  e  &  a    1  e  &  a  2  e  &  a  3  e  &  a  4  e  &  a
F#|-------------------------------------------------|-------------------------------------------------|
C#|-------------------------------------------------|-------------------------------------------------|
G#|-------------------------------------------------|-------------------------------------------------|
C#|-0-----------0--------0-----0--0-----1-----------|-2-----2-----2-----2-----0-----0-----0-----0-----|

    1  e  &  a  2  e  &  a  3  e  &  a  4  e  &  a    1  e  &  a  2  e  &  a  3  e  &  a  4  e  &  a
F#|-------------------------------------------------|-------------------------------------------------|
C#|-------------------------------------------------|-------------------------------------------------|
G#|-3-----------3--------3-----3--3-----3-----3--5--|-------------------------------------------------|
C#|-------------------------------------------------|-5-----------5--------5-----5--5-----5-----------|

    1  e  &  a  2  e  &  a  3  e  &  a  4  e  &  a    1  e  &  a  2  e  &  a  3  e  &  a  4  e  &  a
F#|-------------------------------------------------|-------------------------------------------------|
C#|-------------------------------------------------|-------------2-----------------------0-----------|
G#|-------------------------------------------------|-------------------------------------------------|
C#|-0-----------0--------0-----0--0-----1-----------|-2-----2-----------2--2--0-----0-----------0--0--|

   [2/4]                     [4/4]
    1  e  &  a  2  e  &  a    1  e  &  a  2  e  &  a  3  e  &  a  4  e  &  a
F#|-------------------------|-------------------------------------------------|
C#|-------------------------|-------------------------------------------------|
G#|-------------------3-----|-------------------------------------------------|
C#|-5-----5-----------------|-------------------------------------------------|

   [Breakdown]
    1  e  &  a  2  e  &  a  3  e  &  a  4  e  &  a    1  e  &  a  2  e  &  a  3  e  &  a  4  e  &  a
F#|-------------------------------------------------|-------------------------------------------------|
C#|-------------------------------------------------|-------------------------------------------------|
G#|-------------------------------------------------|-------------------------------------------------|
C#|-5-----------5-----------5-----------5-----------|-0-----------0-----------0-----------1-----------|

    1  e  &  a  2  e  &  a  3  e  &  a  4  e  &  a    1  e  &  a  2  e  &  a  3  e  &  a  4  e  &  a
F#|-------------------------------------------------|-------------------------------------------------|
C#|-------------------------------------------------|-------------------------------------------------|
G#|-------------------------------------------------|-3-----3-----3-----3-----3-----3-----3-----3-----|
C#|-2-----------2-----------2-----------2-----------|-------------------------------------------------|

   [Outro]
    1  e  &  a  2  e  &  a  3  e  &  a  4  e  &  a    1  e  &  a  2  e  &  a  3  e  &  a  4  e  &  a
F#|-------------------------------------------------|-------------------------------------------------|
C#|-------------5-----5-----------------5-----------|-------------0-----------------------------------|
G#|-------------------------------------------------|-------------------------------------------------|
C#|-5-----5-----------------5-----5-----------------|-0-----0-----------0-----0-----0-----1-----------|

    1  e  &  a  2  e  &  a  3  e  &  a  4  e  &  a    1  e  &  a  2  e  &  a  3  e  &  a  4  e  &  a
F#|-------------------------------------------------|-------------------------------------5-----4-----|
C#|-------------2-----------------------------------|-------------------------------5--7--------------|
G#|-------------------------------------------------|-3-----3-----3-----3-----3-----------------------|
C#|-2-----2-----------2-----2-----2-----2-----------|-------------------------------------------------|

    1  e  &  a  2  e  &  a  3  e  &  a  4  e  &  a    1  e  &  a  2  e  &  a  3  e  &  a  4  e  &  a
F#|-------------------------------------------------|-------------------------------------------------|
C#|-------------5-----------------------5-----------|-------------0-----------------------------------|
G#|-------------------------------------------------|-------------------------------------------------|
C#|-5-----5-----------5-----5-----5-----------------|-0-----0-----------0-----0-----0-----1-----------|

    1  e  &  a  2  e  &  a  3  e  &  a  4  e  &  a    1  e  &  a  2  e  &  a  3  e  &  a  4  e  &  a
F#|-------------------------------------------------|-------------------------------------------------|
C#|-------------2-----------------------2-----------|-------------------------------------------------|
G#|-------------------------------------------------|-3-----3-----3-----3-----3-----3-----3-----3--3--|
C#|-2-----2-----------2-----2-----2-----------2-----|-------------------------------------------------|

    1  e  &  a  2  e  &  a  3  e  &  a  4  e  &  a    1  e  &  a  2  e  &  a  3  e  &  a  4  e  &  a
F#|-------------------------------------------------|-------------------------------------------------|
C#|-------------------------------------------------|-------------------------------------------------|
G#|-------------------------------------------------|-------------------3-----------------------------|
C#|-2-----2-----------------0-----0-----------------|-5-----5-----------------------------------------|

    1  e  &  a  2  e  &  a  3  e  &  a  4  e  &  a
F#|-------------------------------------------------|
C#|-------------------------------------------------|
G#|-------------------------------------------------|
C#|-------------------------------------------------|            
Submit corrections

↑ Back to top | Tablatures and chords for acoustic guitar and electric guitar, ukulele, drums are parodies/interpretations of the original songs. You may use it for private study, scholarship, research or language learning purposes only