» » »

Breaking Benjamin - Failure Tabs

Artists:  A B C D E F G H I J K L M N O P Q R S T U V W X Y Z # 

Failure Tabs

(ver. 3) Click to play this song!
Breaking Benjamin
 Rating:
4/5 (4 votes)

 Failure  lessons Tabs too difficult? Try these video lessons and learn fast
 
                Tuning: Drop A# (A#,F,A#,D#,G,C)

Riff 1 (Guitar 1 - clean, let notes ring out)
 C|-----------------------------------|
 G|-----------------------------------|
D#|-------5----------------5----------|
A#|-----0-------0--------0-------0----| x2.5
 F|---8-------8--------8-------8------|
A#|-0-------0--------8-------8--------|

Riff 1 (Guitar 2 - clean w/ slight chorus)
 C|--------12--13------------------12--13--17-----|
 G|-15-------------15-------15--------------------|
D#|-----------------------------------------------|
A#|-----------------------------------------------|
 F|-----------------------------------------------|
A#|-----------------------------------------------|

 C|----------12----13----13----------12-b13-|
 G|-15----------10----10----15--------------|
D#|----14----------------------14-----------|
A#|-------12----------------------12--------|
 F|-----------------------------------------|
A#|-----------------------------------------|

Riff 1 (Guitar 3 - light distortion)
 C|----------------------------------------------------------------------------------|
 G|----------------------------------------------------------------------------------|
D#|----------------------------------------------------------------------------------|
A#|--------------------------------------------------------------------------x-x-x-x-|
 F|---12---------12---13---13-12----------------12---------12---13---13-12---x-x-x-x-|
A#|-0----13-12-0----0----0-------0-10-0-10-13-0----13-12-0----0----0-------0-x-x-x-x-|

Riff 2 (Guitar 1 - full distortion)
 C|------------------------------------------------------------------------------------|
 G|------------------------------------------------------------------------------------|
D#|------------------------------------------------------------------------14-14-14-14-|
A#|------------------------------------------------------------------------13-13-13-13-|
 F|---9---------12---13---13-12----------------9---------12---13---13-12---12-12-12-12-|
A#|-0---13-12-0----0----0-------0-10-0-10-13-0---13-12-0----0----0-------0-------------|

 C|--------------------------------------------------------------------------------|
 G|--------------------------------------------------------------------------------|
D#|--------------------------------------------------------------------------------|
A#|--------------------------------------------------------------------------------|
 F|---9---------12---13---13-12----------------9---------12---13---13-12-------3h6-|
A#|-0---13-12-0----0----0-------0-10-0-10-13-0---13-12-0----0----0-------0-6\5-----|

Riff 2 (Guitar 2 - distortion w/ slight chorus and delay)
 C|----------12----13----13----------12-b13r12----|
 G|-15----------10----10----15-----------------13-|
D#|----14----------------------14-----------------|
A#|-------12----------------------12--------------| x2
 F|-----------------------------------------------|
A#|-----------------------------------------------|

 C|-----------|
 G|-15~-------|
D#|-----------|
A#|-----------|
 F|-----------|
A#|-----------|

Riff 3 (both guitars)   "Life will come our way..."
 C|--------------------------------------------------------------------------------------------------------|
 G|----------------------------------------------10-10-10--10-10--10-10-10-10--------8--8-8--8-8-8-8-------|
D#|----------------------------------------------10-10-10--10-10--10-10-10-10--------7--7-7--7-7-7-7-------|
A#|---------------------------------------8--8-8-8--8--8---8--8---8--8--8--8--5--5-5-5--5-5--5-5-5-5/8-8-8-|
 F|---------------------------------------8--8-8-8--8--8---8--8---8--8--8--8--5--5-5-5--5-5--5-5-5-5/8-8-8-|
A#|-00000-1-0-0-000-0--00000-1-0-0-000-0--8--8-8-8--8--8---8--8---8--8--8--8--5--5-5-5--5-5--5-5-5-5/8-8-8-|
    ***** * * * *** *  ***** * * * *** *

 C|--------------------------------------------------------------------------------------------------------|
 G|----------------------------------------------10-10-10--10-10--10-10-10-10--------8--8-8--8-8-8---------|
D#|----------------------------------------------10-10-10--10-10--10-10-10-10--------7--7-7--7-7-7---------|
A#|---------------------------------------8--8-8-8--8--8---8--8---8--8--8--8--5--5-5-5--5-5--5-5-5-7-3-7-3-|
 F|---------------------------------------8--8-8-8--8--8---8--8---8--8--8--8--5--5-5-5--5-5--5-5-5-7-3-7-3-|
A#|-00000-1-0-0-000-0--00000-1-0-0-000-0--8--8-8-8--8--8---8--8---8--8--8--8--5--5-5-5--5-5--5-5-5-7-3-7-3-|
    ***** * * * *** *  ***** * * * *** *

Riff 4 (both guitars)   "Look for the light..."
 C|------------------------------------------------------------------|
 G|------------------------------------------------------------------|
D#|------------------14-14-14-14-------------------------17-17-17-17-|
A#|-8-8-8--8--8--8-8-x--x--x--x--10-10-10--10--10--10-10-x--x--x--x--|
 F|-8-8-8--8--8--8-8-12-12-12-12-10-10-10--10--10--10-10-15-15-15-15-|
A#|-8-8-8--8--8--8-8-------------10-10-10--10--10--10-10-------------|

Riff 5 (Guitar 1)   "Tired of feeling lost..."
 C|-----------------------------------------------------|
 G|-------10-10---------------------11-11---------------|
D#|-------x--x----------------------x--x----------------|
A#|-0-0-0-7--7--0--0-0--0-0-0-8-8-8-8--8--8--8-8--8-8-8-|
 F|-0-0-0-0--0--0--0-0--0-0-0-8-8-8-8--8--8--8-8--8-8-8-|
A#|-0-0-0-0--0--0--0-0--0-0-0-8-8-8-8--8--8--8-8--8-8-8-|

 C|-----------------------------------------------------------------------------|
 G|-----------------------------------------------------------------------------|
D#|-----------------------------------------------------------------------------|
A#|-10--10-10-10--10-10--10-10--10-10-10-10-10--10-10-10--10-10--10-10--7-7-7-7-|
 F|-8---8--8--8---8--8---8--8---8--8--8--8--10--10-10-10--10-10--10-10--7-7-7-7-|
A#|-7---7--7--7---7--7---7--7---7--7--7--7--10--10-10-10--10-10--10-10--7-7-7-7-|

                                    "Failure..."
 C|--------------------------------------------------------------|
 G|--------------------------------------------------------------|
D#|--------------------------------------------------------------|
A#|-8-8-8-8-8-8-8-8-8-8-8-8-8-8-8-8-8--8-8-8--8-8-8-8-8--8-8-8-8-|
 F|-8-8-8-8-8-8-8-8-8-8-8-8-8-8-8-8-7--7-7-7--7-7-7-8-8--8-8-8-8-|
A#|-8-8-8-8-8-8-8-8-8-8-8-8-8-8-8-8-8--8-8-8--8-8-8-8-8--8-8-8-8-|

Riff 5 (Guitar 2, rhythm follows Guitar 1)
 C|-------------------------------------------------------------------------------------|
 G|-------------------------------------------------------------------------------------|
D#|-14--14-14-14--14-14--14-14-14-14\12-12-12-15--15-15-15--15-15--15-15-15-15/17-17-17-|
A#|-x---x--x--x---x--x---x--x--x--x--x--x--x--x---x--x--x---x--x---x--x--x--x--x--x--x--|
 F|-12--12-12-12--12-12--12-12-12-12\10-10-10-13--13-13-13--13-13--13-13-13-13/15-15-15-|
A#|-------------------------------------------------------------------------------------|

 C|-----------------------------------------------------------------------------------|
 G|-----------------------------------------------------------------------------------|
D#|-14--14-14-14--14-14--14-14-14-14/15-15-15-12-12-12-12-5-5-5-5-17-17-17-17-9-9-9-9-|
A#|-x---x--x--x---x--x---x--x--x--x--x--x--x--x--x--x--x--x-x-x-x-x--x--x--x--x-x-x-x-|
 F|-12--12-12-12--12-12--12-12-12-12/13-13-13-10-10-10-10-3-3-3-3-15-15-15-15-7-7-7-7-|
A#|-----------------------------------------------------------------------------------|

                                            "Failure..."
 C|-13--13-13-13--13-13--13-13--13-13-13-13-12--12-12-12--12-12-12-13-13--13-13-13-13-|
 G|-x---x--x--x---x--x---x--x---x--x--x--x--x---x--x--x---x--x--x--x--x---x--x--x--x--|
D#|-10--10-10-10--10-10--10-10--10-10-10-10-9---9--9--9---9--9--9--10-10--10-10-10-10-|
A#|-----------------------------------------------------------------------------------|
 F|-----------------------------------------------------------------------------------|
A#|-----------------------------------------------------------------------------------|

Fill 1 (Guitar 1, other guitar plays Riff 2 underneath just once)
 C|------------------------------------------------------------------------------|
 G|------------------------------------------------------------------------------|
D#|------------------------------------------------------------------------------|
A#|------------------------------------------------------------------------6-5-1-|
 F|---9---------12---13---13-12----------------9---------12---13---13-12---6-5-1-|
A#|-0---13-12-0----0----0-------0-10-0-10-13-0---13-12-0----0----0-------0-6-5-1-|

Play Riff 3 x1 (both guitars, 2nd half of the riff only)
Play Riff 4 x1 (both guitars, omit the last set of octave chords and replace with a rest)

Riff 6 (Guitar 1)   "Tired of feeling lost..."
 C|-----------------------------------------------------|
 G|-------10-10---------------------11-11---------------|
D#|-------x--x----------------------x--x----------------|
A#|-0-0-0-7--7--0--0-0--0-0-0-8-8-8-8--8--8--8-8--8-8-8-|
 F|-0-0-0-0--0--0--0-0--0-0-0-8-8-8-8--8--8--8-8--8-8-8-|
A#|-0-0-0-0--0--0--0-0--0-0-0-8-8-8-8--8--8--8-8--8-8-8-|

 C|--------------------------------------------------------------------------------|
 G|--------------------------------------------------------------------------------|
D#|--------------------------------------------------------------------------------|
A#|-10--10-10-10--10-10--10-10--10-10-10-10-10--10-10-10--10-10--10-10-10-10\8-8-8-|
 F|-8---8--8--8---8--8---8--8---8--8--8--8--10--10-10-10--10-10--10-10-10-10\8-8-8-|
A#|-7---7--7--7---7--7---7--7---7--7--7--7--10--10-10-10--10-10--10-10-10-10\8-8-8-|

 C|-----------------------------------------------------|
 G|-------10-10---------------------11-11---------------|
D#|-------x--x----------------------x--x----------------|
A#|-0-0-0-7--7--0--0-0--0-0-0-8-8-8-8--8--8--8-8--8-8-8-|
 F|-0-0-0-0--0--0--0-0--0-0-0-8-8-8-8--8--8--8-8--8-8-8-|
A#|-0-0-0-0--0--0--0-0--0-0-0-8-8-8-8--8--8--8-8--8-8-8-|

 C|-----------------------------------------------------------------------------|
 G|-----------------------------------------------------------------------------|
D#|-----------------------------------------------------------------------------|
A#|-10--10-10-10--10-10--10-10--10-10-10-10-10--10-10-10--10-10--10-10--7-7-7-7-|
 F|-8---8--8--8---8--8---8--8---8--8--8--8--10--10-10-10--10-10--10-10--7-7-7-7-|
A#|-7---7--7--7---7--7---7--7---7--7--7--7--10--10-10-10--10-10--10-10--7-7-7-7-|

                                    "Failure..."
 C|--------------------------------------------------------------|
 G|--------------------------------------------------------------|
D#|--------------------------------------------------------------|
A#|-8-8-8-8-8-8-8-8-8-8-8-8-8-8-8-8-8--8-8-8--8-8-8-8-8--8-8-8-8-|
 F|-8-8-8-8-8-8-8-8-8-8-8-8-8-8-8-8-7--7-7-7--7-7-7-8-8--8-8-8-8-|
A#|-8-8-8-8-8-8-8-8-8-8-8-8-8-8-8-8-8--8-8-8--8-8-8-8-8--8-8-8-8-|

Riff 6 (Guitar 2)
 C|-------------------------------------------------------------------------------------|
 G|-------------------------------------------------------------------------------------|
D#|-14--14-14-14--14-14--14-14-14-14\12-12-12-15--15-15-15--15-15--15-15-15-15/17-17-17-|
A#|-x---x--x--x---x--x---x--x--x--x--x--x--x--x---x--x--x---x--x---x--x--x--x--x--x--x--|
 F|-12--12-12-12--12-12--12-12-12-12\10-10-10-13--13-13-13--13-13--13-13-13-13/15-15-15-|
A#|-------------------------------------------------------------------------------------|

 C|-----------------------------------------------------------------------------------|
 G|-----------------------------------------------------------------------------------|
D#|-14--14-14-14--14-14--14-14-14-14/15-15-15-12-12-12-12-5-5-5-5-9-9-9-9-10-10-10-10-|
A#|-x---x--x--x---x--x---x--x--x--x--x--x--x--x--x--x--x--x-x-x-x-x-x-x-x-x--x--x--x--|
 F|-12--12-12-12--12-12--12-12-12-12/13-13-13-10-10-10-10-3-3-3-3-7-7-7-7-8--8--8--8--|
A#|-----------------------------------------------------------------------------------|

 C|-------------------------------------------------------------------------------------|
 G|-------------------------------------------------------------------------------------|
D#|-14--14-14-14--14-14--14-14-14-14\12-12/17-15--15-15-15--15-15--15-15-15-15/17-17-17-|
A#|-x---x--x--x---x--x---x--x--x--x--x--x--x--x---x--x--x---x--x---x--x--x--x--x--x--x--|
 F|-12--12-12-12--12-12--12-12-12-12\10-10/15-13--13-13-13--13-13--13-13-13-13/15-15-15-|
A#|-------------------------------------------------------------------------------------|

 C|-----------------------------------------------------------------------------------|
 G|-----------------------------------------------------------------------------------|
D#|-14--14-14-14--14-14--14-14-14-14/15-15-15-12-12-12-12-5-5-5-5-17-17-17-17-9-9-9-9-|
A#|-x---x--x--x---x--x---x--x--x--x--x--x--x--x--x--x--x--x-x-x-x-x--x--x--x--x-x-x-x-|
 F|-12--12-12-12--12-12--12-12-12-12/13-13-13-10-10-10-10-3-3-3-3-15-15-15-15-7-7-7-7-|
A#|-----------------------------------------------------------------------------------|

                                            "Failure..."
 C|-13--13-13-13--13-13--13-13--13-13-13-13-12--12-12-12--12-12-12-13-13--13-13-13-13-|
 G|-x---x--x--x---x--x---x--x---x--x--x--x--x---x--x--x---x--x--x--x--x---x--x--x--x--|
D#|-10--10-10-10--10-10--10-10--10-10-10-10-9---9--9--9---9--9--9--10-10--10-10-10-10-|
A#|-----------------------------------------------------------------------------------|
 F|-----------------------------------------------------------------------------------|
A#|-----------------------------------------------------------------------------------|

Fill 2 (both guitars)
 C|--------------------------------|
 G|--------------------------------|
D#|-11-12-11-----------------------|
A#|-x--x--x------------------------|
 F|-9--10-9------------------------|
A#|-0--0--0--0--0--x-x-0--0-0-1/12-|

Riff 7 (Guitar 1)
 C|------------------------------------------------1~-------------------------------------------------|
 G|------------------------------------------------3~-------------------------------------------------|
D#|------------------------------------------------2~-------------------------------------------------|
A#|------------------------------------------------0~-------------------------------------------------|
 F|-------------------------0-3--------------------0~--------------------------0-3--------------------|
A#|-0-1-0--0--0--x-x-0--4-1-----0-1-0--0--0--x-x-0-0~--0-1-0--0--0--x-x-0--4-1-----0-1-0--0--0--x-x-0-|

Riff 7 (Guitar 2, lead w/ wah)   ' = tremolo pick
 C|-------13-------13----------------|
 G|-------x--------x-----------------|
D#|-14'---10--15'--10--14'--12'--14'-|
A#|-x---------x--------x----x----x---|
 F|-12'-------13'------12'--10'--12'-|
A#|----------------------------------|

Riff 8 (Guitar 1)   "Tired of feeling lost..."
 C|-----------------------------------------------------|
 G|-------10-10---------------------11-11---------------|
D#|-------x--x----------------------x--x----------------|
A#|-0-0-0-7--7--0--0-0--0-0-0-8-8-8-8--8--8--8-8--8-8-8-|
 F|-0-0-0-0--0--0--0-0--0-0-0-8-8-8-8--8--8--8-8--8-8-8-|
A#|-0-0-0-0--0--0--0-0--0-0-0-8-8-8-8--8--8--8-8--8-8-8-|

 C|-----------------------------------------------------------------------|
 G|-----------------------------------------------------------------------|
D#|-----------------------------------------------------------------------|
A#|-10--10-10-10--10-10--10-10--10-10-10-10-10-10-10-10--10-10-10-10--x-8-|
 F|-8---8--8--8---8--8---8--8---8--8--8--8--10-10-10-10--10-10-10-10--x-8-|
A#|-7---7--7--7---7--7---7--7---7--7--7--7--10-10-10-10--10-10-10-10--x-8-|

 C|-----------------------------------------------------|
 G|-------10-10---------------------11-11---------------|
D#|-------x--x----------------------x--x----------------|
A#|-0-0-0-7--7--0--0-0--0-0-0-8-8-8-8--8--8--8-8--8-8-8-|
 F|-0-0-0-0--0--0--0-0--0-0-0-8-8-8-8--8--8--8-8--8-8-8-|
A#|-0-0-0-0--0--0--0-0--0-0-0-8-8-8-8--8--8--8-8--8-8-8-|

 C|-------------------------------------------------------------------------------|
 G|-------------------------------------------------------------------------------|
D#|-------------------------------------------------------------------------------|
A#|-10--10-10-10--10-10--10-10--10-10-10-10-10--10-10-10--10-10--10-10-10-7-3-7-3-|
 F|-8---8--8--8---8--8---8--8---8--8--8--8--10--10-10-10--10-10--10-10-10-7-3-7-3-|
A#|-7---7--7--7---7--7---7--7---7--7--7--7--10--10-10-10--10-10--10-10-10-7-3-7-3-|

        "We bury the sunlight..."
 C|-----------------------------------------------------|
 G|-------10-10---------------------11-11---------------|
D#|-------x--x----------------------x--x----------------|
A#|-0-0-0-7--7--0--0-0--0-0-0-8-8-8-8--8--8--8-8--8-8-8-|
 F|-0-0-0-0--0--0--0-0--0-0-0-8-8-8-8--8--8--8-8--8-8-8-|
A#|-0-0-0-0--0--0--0-0--0-0-0-8-8-8-8--8--8--8-8--8-8-8-|

 C|-------------------------------------------------------------------------------|
 G|-------------------------------------------------------------------------------|
D#|-------------------------------------------------------------------------------|
A#|-10--10-10-10--10-10--10-10--10-10-10-10-10--10-10-10--10-10--10-10-10-8-7-8-7-|
 F|-8---8--8--8---8--8---8--8---8--8--8--8--10--10-10-10--10-10--10-10-10-8-7-8-7-|
A#|-7---7--7--7---7--7---7--7---7--7--7--7--10--10-10-10--10-10--10-10-10-8-7-8-7-|

        "We bury the sunlight..."
 C|-----------------------------------------------------|
 G|-------10-10---------------------11-11---------------|
D#|-------x--x----------------------x--x----------------|
A#|-0-0-0-7--7--0--0-0--0-0-0-8-8-8-8--8--8--8-8--8-8-8-|
 F|-0-0-0-0--0--0--0-0--0-0-0-8-8-8-8--8--8--8-8--8-8-8-|
A#|-0-0-0-0--0--0--0-0--0-0-0-8-8-8-8--8--8--8-8--8-8-8-|

 C|-----------------------------------------------------------------------------|
 G|-----------------------------------------------------------------------------|
D#|-----------------------------------------------------------------------------|
A#|-10--10-10-10--10-10--10-10--10-10-10-10-10--10-10-10--10-10--10-10--7-7-7-7-|
 F|-8---8--8--8---8--8---8--8---8--8--8--8--10--10-10-10--10-10--10-10--7-7-7-7-|
A#|-7---7--7--7---7--7---7--7---7--7--7--7--10--10-10-10--10-10--10-10--7-7-7-7-|

                                    "Failure..."
 C|--------------------------------------------------------------|
 G|--------------------------------------------------------------|
D#|--------------------------------------------------------------|
A#|-8-8-8-8-8-8-8-8-8-8-8-8-8-8-8-8-8--8-8-8--8-8-8-8-8--8-8-8-8-|
 F|-8-8-8-8-8-8-8-8-8-8-8-8-8-8-8-8-7--7-7-7--7-7-7-8-8--8-8-8-8-|
A#|-8-8-8-8-8-8-8-8-8-8-8-8-8-8-8-8-8--8-8-8--8-8-8-8-8--8-8-8-8-|

Riff 8 (Guitar 2)
 C|-------------------------------------------------------------------------------------|
 G|-------------------------------------------------------------------------------------|
D#|-14--14-14-14--14-14--14-14-14-14\12-12-12-15--15-15-15--15-15--15-15-15-15/17-17-17-|
A#|-x---x--x--x---x--x---x--x--x--x--x--x--x--x---x--x--x---x--x---x--x--x--x--x--x--x--|
 F|-12--12-12-12--12-12--12-12-12-12\10-10-10-13--13-13-13--13-13--13-13-13-13/15-15-15-|
A#|-------------------------------------------------------------------------------------|

 C|--------------------------------------------------------------------------|
 G|--------------------------------------------------------------------------|
D#|-14--14-14-14--14-14--14-14-14-14/15-15-15-12-12-12-12--12-12-12-12----15-|
A#|-x---x--x--x---x--x---x--x--x--x--x--x--x--x--x--x--x---x--x--x--x-----x--|
 F|-12--12-12-12--12-12--12-12-12-12/13-13-13-10-10-10-10--10-10-10-10--x-13-|
A#|---------------------------------------------------------------------x----|

 C|-------------------------------------------------------------------------------------|
 G|-------------------------------------------------------------------------------------|
D#|-14--14-14-14--14-14--14-14-14-14\12-12/17-15--15-15-15--15-15--15-15-15-15/17-17-17-|
A#|-x---x--x--x---x--x---x--x--x--x--x--x--x--x---x--x--x---x--x---x--x--x--x--x--x--x--|
 F|-12--12-12-12--12-12--12-12-12-12\10-10/15-13--13-13-13--13-13--13-13-13-13/15-15-15-|
A#|-------------------------------------------------------------------------------------|

 C|-----------------------------------------------------------------------------------|
 G|-----------------------------------------------------------------------------------|
D#|-14--14-14-14--14-14--14-14-14-14/15-15-15-12-12-12-12-5-5-5-5-17-17-17-17-9-9-9-9-|
A#|-x---x--x--x---x--x---x--x--x--x--x--x--x--x--x--x--x--x-x-x-x-x--x--x--x--x-x-x-x-|
 F|-12--12-12-12--12-12--12-12-12-12/13-13-13-10-10-10-10-3-3-3-3-15-15-15-15-7-7-7-7-|
A#|-----------------------------------------------------------------------------------|
 
              "We bury the sunlight..."
 C|-------------------------------------------------------------------------------------|
 G|-------------------------------------------------------------------------------------|
D#|-14--14-14-14--14-14--14-14-14-14\12-12/17-15--15-15-15--15-15--15-15-15-15/17-17-17-|
A#|-x---x--x--x---x--x---x--x--x--x--x--x--x--x---x--x--x---x--x---x--x--x--x--x--x--x--|
 F|-12--12-12-12--12-12--12-12-12-12\10-10/15-13--13-13-13--13-13--13-13-13-13/15-15-15-|
A#|-------------------------------------------------------------------------------------|

 C|---------------------------------------------------------------------------------|
 G|---------------------------------------------------------------------------------|
D#|-14--14-14-14--14-14--14-14-14-14/15-15-15-12-12-12-12-10-10-9-9-9-9-10-10-10-10-|
A#|-x---x--x--x---x--x---x--x--x--x--x--x--x--x--x--x--x--x--x--x-x-x-x-x--x--x--x--|
 F|-12--12-12-12--12-12--12-12-12-12/13-13-13-10-10-10-10-8--8--7-7-7-7-8--8--8--8--|
A#|---------------------------------------------------------------------------------|

 C|-------------------------------------------------------------------------------------|
 G|-------------------------------------------------------------------------------------|
D#|-14--14-14-14--14-14--14-14-14-14\12-12/17-15--15-15-15--15-15--15-15-15-15/17-17-17-|
A#|-x---x--x--x---x--x---x--x--x--x--x--x--x--x---x--x--x---x--x---x--x--x--x--x--x--x--|
 F|-12--12-12-12--12-12--12-12-12-12\10-10/15-13--13-13-13--13-13--13-13-13-13/15-15-15-|
A#|-------------------------------------------------------------------------------------|

 C|---------------------------------------------------------------------------------------|
 G|---------------------------------------------------------------------------------------|
D#|-14--14-14-14--14-14--14-14-14-14/15-15-15-12-12-12-12-10-10-10-10-17-17-17-17-9-9-9-9-|
A#|-x---x--x--x---x--x---x--x--x--x--x--x--x--x--x--x--x--x--x--x--x--x--x--x--x--x-x-x-x-|
 F|-12--12-12-12--12-12--12-12-12-12/13-13-13-10-10-10-10-8--8--8--8--15-15-15-15-7-7-7-7-|
A#|---------------------------------------------------------------------------------------|

                                           "Failure..."
 C|-13--13-13-13--13-13--13-13--13-13-13-13-12--12-12-12--12-12-12-13-13--13-13-13-13-|
 G|-x---x--x--x---x--x---x--x---x--x--x--x--x---x--x--x---x--x--x--x--x---x--x--x--x--|
D#|-10--10-10-10--10-10--10-10--10-10-10-10-9---9--9--9---9--9--9--10-10--10-10-10-10-|
A#|-----------------------------------------------------------------------------------|
 F|-----------------------------------------------------------------------------------|
A#|-----------------------------------------------------------------------------------|

Riff 9 (Guitar 1)
 C|-----------------------------------------------------|
 G|-----------------------------------------------------|
D#|-----------------------------------------------------|
A#|------------------------------------------------0--0-|
 F|---9---------12---13---13-12--------------00000-0--0-|
A#|-0---13-12-0----0----0-------0-10-0-10-13-00000-0--0-|
                                             ***            
Submit corrections


        Failure  lessons Hard to play? Try these video lessons and learn fast Failure  lessons
        
↑ Back to top | Tablatures and chords for acoustic guitar and electric guitar, ukulele, drums are parodies/interpretations of the original songs. You may use it for private study, scholarship, research or language learning purposes only