» » »

Breaking Benjamin - Failure Tabs

Artists:  A B C D E F G H I J K L M N O P Q R S T U V W X Y Z # 

Failure Tabs

(ver. 1) Click to play this song!
Breaking Benjamin
 Rating:
4/5 (4 votes)

 Failure  lessons Tabs too difficult? Try these video lessons and learn fast
 
                Tuning:Drop D

Intro:

e|------------------|
B|---11--13--14--11-|
G|------------------|
D|------------------|
A|------------------|
D|------------------|

e|---------------13-|
B|---11--13--14-----|
G|------------------|
D|------------------|
A|------------------|
D|------------------|

e|-------------------------|
B|---11--13--14-14--11--13-|
G|-------------------------|
D|-------------------------|
A|-------------------------|
D|-------------------------|

e|-----------------------------------|
B|---11--13--14-14--11--13-14-13-----|
G|--------------------------------13-|
D|-----------------------------------|
A|-----------------------------------|
D|-----------------------------------|

e|---------------------------------------|
B|---11--13--14-14--11--13-14-13------11-|
G|--------------------------------13-----|
D|---------------------------------------|
A|---------------------------------------|
D|---------------------------------------|

Verse:

e|-------------------------------------|
B|-------------------------------------|
G|-------------------------------------|
D|---4-4-4-4-4-4-4-4---1-1-1-1-1-1-1-1-|
A|---4-4-4-4-4-4-4-4---1-1-1-1-1-1-1-1-|
D|---4-4-4-4-4-4-4-4---1-1-1-1-1-1-1-1-|

e|-------------------------------------|
B|-------------------------------------|
G|-------------------------------------|
D|---4-4-4-4-4-4-4-4---1-1-1-1-1-1-1-1-|
A|---4-4-4-4-4-4-4-4---1-1-1-1-1-1-1-1-|
D|---4-4-4-4-4-4-4-4---1-1-1-1-1-1-1-1-|

e|---------------------------------------------|
B|---------------------------------------------|
G|---------------------------------------------|
D|---4-4-4---4---4---4-4---6-6-6---6---6---6-6-|
A|---4-4-4---4---4---4-4---6-6-6---6---6---6-6-|
D|---4-4-4---4---4---4-4---6-6-6---6---6---6-6-|

Chorus:

e|---------------------------------------------------------------------------------|
B|---------------------------------------------------------------------------------|
G|---------------------------------------------------------------------------------|
D|---8-8-8-8-8-8-8-8---4-4-4-4-4-4-4-4---11-11-11-11-11-11-11-11---6-6-6-6-6-6-6-6-|
A|---8-8-8-8-8-8-8-8---4-4-4-4-4-4-4-4---11-11-11-11-11-11-11-11---6-6-6-6-6-6-6-6-|
D|---8-8-8-8-8-8-8-8---4-4-4-4-4-4-4-4---11-11-11-11-11-11-11-11---6-6-6-6-6-6-6-6-|

e|-----------------------------------|
B|-----------------------------------|
G|-----------------------------------|
D|---4-4-4-4-4-4-4-4-4-4-4-4-4-4-4-4-|
A|---4-4-4-4-4-4-4-4-4-4-4-4-4-4-4-4-|
D|---4-4-4-4-4-4-4-4-4-4-4-4-4-4-4-4-|

Solo:

e|-------------------------------------------------------------------|
B|-------------------------------------------------------------------|
G|----------------6-6---------------6-6------------------------------|
D|---3-3-3-3-3-3-------4-4-4-4-4-4-------3-3-3-3-3-3-------3-3-3-3-3-|
A|----------------------------------------------------6-6------------|
D|-------------------------------------------------------------------|

            
Submit corrections


        Failure  lessons Hard to play? Try these video lessons and learn fast Failure  lessons
        
↑ Back to top | Tablatures and chords for acoustic guitar and electric guitar, ukulele, drums are parodies/interpretations of the original songs. You may use it for private study, scholarship, research or language learning purposes only