» » »

Breaking Benjamin - Breaking The Silence Tabs

Artists:  A B C D E F G H I J K L M N O P Q R S T U V W X Y Z # 

Breaking The Silence Tabs

(ver. 1) Click to play this song!
Breaking Benjamin
 Rating:
3/5 (21 vote)

 Breaking The Silence  lessons Tabs too difficult? Try these video lessons and learn fast
 
                Tuning: Drop C


Intro: DISTORTION
Guitar 1: (0:00) 
D---------------------------------------------------------------|
A---------------------------------------------------------------|
F---------------------------------------------------------------|
C---------------------------------------------------------------|
G-3---2-------2---2---2---------3---2-------2---2---2-----------|
C-3---2-------2---2---2---6p3p0-3---2-------2---2---2---0h1p0---|

Guitar 2: (0:00)
D---------0-----------------------------------------------------|
A---------0-----------------------------------------------------|
F---------------------------------------------------------------| let ring until
C---------------------------------------------------------------| second repeat
G---------------------------------------------------------------|
C---------------------------------------------------------------|

Guitar 1: (0:05)
D-------------------------------------------------------------|
A-------------------------------------------------------------|
F-------------------------------------------------------------|
C-------------------------------------------------------------|
G-3---2-------2---2---2---------3---2-------------------------|
C-3---2-------2---2---2---6p3p0-3---2-------0---3---/15---\---|

Guitar 1: (0:10)
D---------------------------------------------------------------|
A---------------------------------------------------------------|
F---------------------------------------------------------------|
C---------------------------------------------------------------|
G-3---2-------2---2---2---------3---2-------2---2---2-----------|
C-3---2-------2---2---2---6p3p0-3---2-------2---2---2---0h1p0---|

Guitar 2: (0:10)
D---------0-----------------------------------------------------|
A---------0-----------------------------------------------------|
F---------------------------------------------------------------| 
C---------------------------------------------------------------|
G---------------------------------------------------------------|
C---------------------------------------------------------------|

Guitar 1: (0:15)
D------------------------------------------------------|
A------------------------------------------------------|
F------------------------------------------------------|
C------------------------------------------------------|
G-3---2-------2---2---2---------3---2------------------|
C-3---2-------2---2---2---6p3p0-3---2-------2---6b-0---|

VERSE:
Guitar 1 & 2: (0:20)                                                              
D-----------------------------------------------------------------------------+5-------|
A--------------------------------------------------------------------------------------|
F--------------------------------------------------------------------------------------|
C--------------------------------------------------------------------------------------|
G-3---2---x------------3---3---x----------2---2---x-----------3---3---x----------------|
C-3---2---x------------3---3---x----------2---2---x-----------3---3---x----------------|
          I'll keep my sights..    Waking dream..     Gave my life..      Vile beneath!

Guitar 1 & 2: (0:30)
D--------------------------------------------------------------------------------------|
A--------------------------------------------------------------------------------------|
F--------------------------------------------------------------------------------------|
C--------------------------------------------------------------------------------------|
G-2---2---x------------3---3---x----------2---2---x-----------3---3---x---------3------|
C-2---2---x------------3---3---x----------2---2---x-----------3---3---x---------3------|
              I am but one..        Dying breed..        This wall..      Won't kill..

CHORUS:
Guitar 1: (0:40 - 0:59)
D-------------------------------------------------------0--------------------------------------------|
A-------------------------------------------------------0--------------------------------------------|
F-------------------------------------------------------5--------------------------------------------|
C-2----p0h2-x-2-----X-X---X-2----p0h2-x-2-----X-X-X-X---5----------------------0-0-0-0-0-0-0-0-------| x2
G-2----p0h2-x-2-----X-X---X-2----p0h2-x-2-----X-X-X-X---3----------------------0-0-0-0-0-0-0-0-------|
C-2----p0h2-x-2-----X-X---X-2----p0h2-x-2-----X-X-X-X--------------------------0-0-0-0-0-0-0-0-------|
                                                    I'm Breaking the silence.. falling apart for you!
                                                        Chasing the righteous, becoming apart of you!        
Guitar 2: (0:40 - 0:59)
D---------------------------0---------------------------0------------------------|
A---------------------------0---------------------------0------------------------|
F--------------------------------------------------------------------------------|
C--------------------------------------------------------------------------------| x2
G--------------------------------------------------------------------------------|
C--------------------------------------------------------------------------------|       

Post-Chorus:
Guitar 1: (1:00)
D---------------------------------------------------------------|
A---------------------------------------------------------------|
F---------------------------------------------------------------|
C---------------------------------------------------------------|
G-3---2-------2---2---2---------3---2-------2---2---2-----------|
C-3---2-------2---2---2---6p3p0-3---2-------2---2---2---0h1p0---|

Guitar 2: (1:00)
D---------0-----------------------------------------------------|
A---------0-----------------------------------------------------|
F---------------------------------------------------------------|
C---------------------------------------------------------------| 
G---------------------------------------------------------------|
C---------------------------------------------------------------|

Guitar 1: continued
D---------------------------------------------------------------|
A---------------------------------------------------------------|
F---------------------------------------------------------------|
C---------------------------------------------------------------|
G-3---2-------2---2---2---------3---2-------2---------------5---|
C-3---2-------2---2---2---6p3p0-3---2-------2---6\5-3p0-3h5-----|


VERSE 2:
Guitar 1: (1:10)                                                             
D-----------------------------------------------------------------------------+5-------|
A--------------------------------------------------------------------------------------|
F--------------------------------------------------------------------------------------|
C--------------------------------------------------------------------------------------|
G-3---2---x------------3---3---x----------2---2---x-----------3---3---x----------------|
C-3---2---x------------3---3---x----------2---2---x-----------3---3---x----------------|
          Fake plastic life..      Wasted years..      Lost inside..   ..diabolic fear!

Guitar 1: (1:20)
D--------------------------------------------------------------------------------------|
A--------------------------------------------------------------------------------------|
F--------------------------------------------------------------------------------------|
C--------------------------------------------------------------------------------------|
G-2---2---x------------3---3---x----------2---2---x-----------3---3---x---------3------|
C-2---2---x------------3---3---x----------2---2---x-----------3---3---x---------3------|
             I feel no fault..    Fault I feel..  Drains this wall..   It won't drain me!

CHORUS 2:
Guitar 1: (1:30)
D-------------------------------------------------------0--------------------------------------------|
A-------------------------------------------------------0--------------------------------------------|
F-------------------------------------------------------5--------------------------------------------|
C-2----p0h2-x-2-----X-X---X-2----p0h2-x-2-----X-X-X-X---5----------------------0-0-0-0-0-0-0-0-------| x2
G-2----p0h2-x-2-----X-X---X-2----p0h2-x-2-----X-X-X-X---3----------------------0-0-0-0-0-0-0-0-------|
C-2----p0h2-x-2-----X-X---X-2----p0h2-x-2-----X-X-X-X--------------------------0-0-0-0-0-0-0-0-------|
                                                    I'm Breaking the silence.. falling apart for you!
                                                        Chasing the righteous, becoming apart of you! 
Guitar 2: (1:30)
D---------------------------0---------------------------0------------------------|
A---------------------------0---------------------------0------------------------|
F--------------------------------------------------------------------------------|
C--------------------------------------------------------------------------------| x2
G--------------------------------------------------------------------------------|
C--------------------------------------------------------------------------------|

Bridge/Solo:
Guitar 1: (1:50)
D-----------|
A-----------|
F-----------|
C-2---------| let ring until bass solo ends
G-2---------|
C-2---------|

Guitar 1 & 2: (1:59)
D-----------------------------------------------------------------------------------------|
A-----------------------------------------------------------------------------------------|
F-----------------------------------------------------------------------------------------|
C-2---6---0---8---------2---6---0---8---------2---6---0---8---------2---6---0---8---------|
G-2---6---0---8---5-8---2---6---0---8---8-5---2---6---0---8---5-8---2---6---0---8---8-5---|
C-2---6---0---8---------2---6---0---8---------2---6---0---8---------2---6---0---8---------|

Guitar 1: (2:09)
D-----------------------------------------------------------------------------------------|
A-----------------------------------------------------------------------------------------|
F-----------------------------------------------------------------------------------------|
C-----------------------------------------------------------------------------------3-----|
G-2---6---0---8---5h8---2---6---0---8---8p5---2---6---0---8---5h8---2---6---0---8---3-----|
C-2---6---0---8---------2---6---0---8---------2---6---0---8---------2---6---0---8---3-----|
  *   *   *   *         *   *   *   *         *   *   *   *         *   *   *   *

Guitar 2: (2:09)
D-16------17------------20------17------------16------17------16----20------17------------|
A-----16------18------------16------15------------16------15------------16------15--x-----|
F-----------------------------------------------------------------------------------------|
C-----------------------------------------------------------------------------------------|
G-----------------------------------------------------------------------------------------|
C-----------------------------------------------------------------------------------------|

CHORUS:
Guitar 1: (2:19)
D-------------------------------------------------------0--------------------------------------------|
A-------------------------------------------------------0--------------------------------------------|
F-------------------------------------------------------5--------------------------------------------|
C-2----p0h2-x-2-----X-X---X-2----p0h2-x-2-----X-X-X-X---5----------------------0-0-0-0-0-0-0-0-------|
G-2----p0h2-x-2-----X-X---X-2----p0h2-x-2-----X-X-X-X---3----------------------0-0-0-0-0-0-0-0-------|
C-2----p0h2-x-2-----X-X---X-2----p0h2-x-2-----X-X-X-X--------------------------0-0-0-0-0-0-0-0-------|
                                                    I'm Breaking the silence.. falling apart for you!
Guitar 2: (2:19)
D---------------------------0---------------------------0------------------------|
A---------------------------0---------------------------0------------------------|
F--------------------------------------------------------------------------------|
C--------------------------------------------------------------------------------|
G--------------------------------------------------------------------------------|
C--------------------------------------------------------------------------------|

Guitar 1: (2:29)                                                      
D-------------------------------------------------------0--------------------------------------|
A-------------------------------------------------------0--------------------------------------|
F-------------------------------------------------------5--------------------------------------|
C-2----p0h2-x-2-----X-X---X-2----p0h2-x-2-----X-X-X-X---5----------------------0-0-0-0-0-0-x---|
G-2----p0h2-x-2-----X-X---X-2----p0h2-x-2-----X-X-X-X---3----------------------0-0-0-0-0-0-x---|
C-2----ph02-x-2-----X-X---X-2----p0h2-x-2-----X-X-X-X--------------------------0-0-0-0-0-0-x---|

Guitar 2: (2:29)
D---------------------------0---------------------------0------------------------|
A---------------------------0---------------------------0------------------------|
F--------------------------------------------------------------------------------|
C--------------------------------------------------------------------------------|
G--------------------------------------------------------------------------------|
C--------------------------------------------------------------------------------|

Guitar 1: (2:39)
D-------------------------------------------------------0--------------------------------0-----------|
A-------------------------------------------------------0--------------------------------5-----------|
F-------------------------------------------------------5--------------------------------4-----------|
C-2----p0h2-x-2-----X-X---X-2----p0h2-x-2-----X-X-X-X---5----------------------0---------0-----------|
G-2----p0h2-x-2-----X-X---X-2----p0h2-x-2-----X-X-X-X---3----------------------0---------------------|
C-2----p0h2-x-2-----X-X---X-2----p0h2-x-2-----X-X-X-X--------------------------0---------------------|
                                                    I'm Breaking the silence.. falling down with you!

Guitar 2: (2:39)
D---------------------------0---------------------------0------------------------|
A---------------------------0---------------------------0------------------------|
F--------------------------------------------------------------------------------|
C--------------------------------------------------------------------------------|
G--------------------------------------------------------------------------------|
C--------------------------------------------------------------------------------|

OUTRO:
Guitar 1 & 2: (2:49)
D-------------------------------------------------------------------------------------|
A-------------------------------------------------------------------------------------|
F-------------------------------------------------------------------------------------|
C-2---0---6---0---3--h5---2---0---6---0---3-h5---2---0---6---0---3-h5---2---0---2-x---|
G-2---0---6---0---3--h5---2---0---6---0---3-h5---2---0---6---0---3-h5---2---0---2-x---|
C-2---0---6---0---3--h5---2---0---6---0---3-h5---2---0---6---0---3-h5---2---0---2-x---|            
Submit corrections


        Breaking The Silence  lessons Hard to play? Try these video lessons and learn fast Breaking The Silence  lessons
        
↑ Back to top | Tablatures and chords for acoustic guitar and electric guitar, ukulele, drums are parodies/interpretations of the original songs. You may use it for private study, scholarship, research or language learning purposes only