» » »

Breaking Benjamin - Breaking The Silence Tabs

Artists:  A B C D E F G H I J K L M N O P Q R S T U V W X Y Z # 

Breaking The Silence Tabs

(ver. 2) Click to play this song!
Breaking Benjamin
 Rating:
4.3/5 (6 votes)

 Breaking The Silence lessons Tabs too difficult? Try these video lessons and learn fast
 
                [Intro]
                                                                    1st ending
e|-----------------------|--------------------|--------------------|----------------|
B|-----------------------|--------------------|--------------------|----------------|
G|-----------------------|--------------------|--------------------|----------------|
D|-1--0---------1p0------|-1--0-x-------1p0---|-1--0-x-------1p0---|-1--0-x-----13--|
A|-1--0------0-0-0-----x-|-1--0-x-0-0-0-----x-|-1--0-x-0-0-0-----x-|-1--0-x-0-1/13--|
D|-1--0------0-0-0-----x-|-1--0---0-0-0-----x-|-1--0---0-0-0-----x-|-1--0---0-1/13--|
  2nd ending
e|----------------|
B|----------------|
G|----------------|
D|-1--0-x-------1-|
A|-1--0-x-0-------|
D|-1--0---0-4*b---|

[Verse 1]

e|------------------------------|-------------------------------------------------|
B|------------------------------|-------------------------------------------------|
G|------------------------------|-------------------------------------------------|
D|-1--0-|--1--1-|--0--0-|--1--1-|------|-0--0-|--1--1-|--0--0-|--1--1-|--1--------|
A|-1--0-|--1--1-|--0--0-|--1--1-|------|-0--0-|--1--1-|--0--0-|--1--1-|--1--------|
D|-1--0-|--1--1-|--0--0-|--1--1-|------|-0--0-|--1--1-|--0--0-|--1--1-|--1--------|

[Chorus]

                           2x
e|-------------------------|----|----|
B|.------------------------|----|---.|
G|-------------------------|-10-|-12-|
D|-0-0---0---0--0-0-x-x----|-8--|-10-|
A|.0-0-x-0-|-0--0-0-x-x--x-|-8--|-10.|
D|-0-0-x-0-|-0--0-0-x-x--x-|-8--|-10-|

e|-----------------------|--------------------|--------------------|-------------------------|
B|-----------------------|--------------------|--------------------|-------------------------|
G|-----------------------|--------------------|--------------------|-------------------------|
D|-1--0---------1p0------|-1--0-x-------1p0---|-1--0-x-------1p0---|-1--0-x------------------|
A|-1--0------0-0-0-----x-|-1--0-x-0-0-0-----x-|-1--0-x-0-0-0-----x-|-1--0-x-0-------------3--|
D|-1--0------0-0-0-----x-|-1--0---0-0-0-----x-|-1--0---0-0-0-----x-|-1--0---0-4p3-1p0-1h3----|

[Verse 2]

e|-------------------------------------|------------------------------------------|
B|-------------------------------------|------------------------------------------|
G|-------------------------------------|------------------------------------------|
D|-1--0-|--1--1-|--0--0-|--1--1-|------|-0--0-|--1--1-|--0--0-|--1--1-|--1--------|
A|-1--0-|--1--1-|--0--0-|--1--1-|------|-0--0-|--1--1-|--0--0-|--1--1-|--1--------|
D|-1--0-|--1--1-|--0--0-|--1--1-|------|-0--0-|--1--1-|--0--0-|--1--1-|--1--------|

[Chorus]

                           2x
e|-------------------------|----|----|
B|.------------------------|----|---.|
G|-------------------------|-10-|-12-|
D|-0-0---0---0--0-0-x-x----|-8--|-10-|
A|.0-0-x-0-|-0--0-0-x-x--x-|-8--|-10.|
D|-0-0-x-0-|-0--0-0-x-x--x-|-8--|-10-|

e|----|
B|----|
G|----|
D|-0--|
A|-0--|
D|-0--|

[Instrumental]

                                     2x
e|-----------------|-----------------|
B|-----------------|-----------------|
G|-----------------|-----------------|
D|-0--4--0--6------|-0--4--0--6------|
A|-0--4--0--6--3-6-|-0--4--0--6--6-3-|
D|-0--4--0--6------|-0--4--0--6------|
Pinch harmonix:                2x
e|--------------|--------------|
B|--------------|--------------|
G|--------------|--------------|
D|--------------|--------------|
A|-5*--3*---3-6-|-5*--3*---6-3-|
D|---4*--6*-----|---4*--6*-----|

[Chorus]

                           2x
e|-------------------------|----|----|
B|.------------------------|----|---.|
G|-------------------------|-10-|-12-|
D|-0-0---0---0--0-0-x-x----|-8--|-10-|
A|.0-0-x-0-|-0--0-0-x-x--x-|-8--|-10.|
D|-0-0-x-0-|-0--0-0-x-x--x-|-8--|-10-|

e|---------------|-------------------|----|----|
B|---------------|-------------------|----|----|
G|---------------|-------------------|-10-|-12-|
D|-0----0--0-x---|-0----0--0-x-------|-8--|-10-|
A|-0--x-0--0-x-x-|-0--x-0--0-x-x-x-x-|-8--|-10-|
D|-0--x-0--0-x-x-|-0--x-0--0-x-x-x-x-|-8--|-10-|

[Outro]

e|------------|-------------|------------|---------|
B|------------|-------------|------------|---------|
G|---5---5--6-|---5---5-----|---5---5--6-|---------|
D|---5---5--5-|---5---5-1-3-|---5---5--5-|---5-0-|-|
A|---3---3--3-|---3---3-1-3-|---3---3--3-|---3-0-|-|
D|-0---4------|-0---4---1-3-|-0---4------|-0---0-|-|            
Submit corrections


        Breaking The Silence lessons Hard to play? Try these video lessons and learn fast Breaking The Silence lessons
        
↑ Back to top | Tablatures and chords for acoustic guitar and electric guitar, ukulele, drums are parodies/interpretations of the original songs. You may use it for private study, scholarship, research or language learning purposes only