» » »

Brand New - Out Of Mana Tabs

Artists:  A B C D E F G H I J K L M N O P Q R S T U V W X Y Z # 

Out Of Mana Tabs

(ver. 1) Click to play this song!
Brand New
 Rating:
4.3/5 (28 votes)

 Out Of Mana lessons Tabs too difficult? Try these video lessons and learn fast
 
                [Intro]
Guitar 1
eb|--13-------------11----13----|-13-------------11----18-16-|
Bb|-----13-14-13/11----11----13-|----13-14-13/11----11-------|
Gb|-----------------------------|----------------------------|
Db|-----------------------------|----------------------------|
Ab|-----------------------------|----------------------------|
Eb|-----------------------------|----------------------------|
                                                                                                                       
eb|--13-------------11----13----|-13-------------18----16----|
Bb|-----13-14-13/11----11----13-|----13-14-13/18----18----16-|
Gb|-----------------------------|----------------------------|
Db|-----------------------------|----------------------------|
Ab|-----------------------------|----------------------------|
Eb|-----------------------------|----------------------------|     

Guitar 2
eb|---------------------------------------|
Bb|---------------------------------------|
Gb|---------------------------------------|
Db|-6-6-6-6-8-8-8-X-3--3-3-3-3-3-3-3------|
Ab|-6-6-6-6-8-8-8-X-3--3-3-3-3-3-3-3------|
Eb|-4-4-4-4-6-6-6-X-1--1-1-1-1-1-1-1------|

eb|---------------------------------------|
Bb|---------------------------------------|
Gb|---------------------------------------|
Db|-6-6-6-6-8-8-8-X-3--3-3-3-3-3-3-3------|
Ab|-6-6-6-6-8-8-8-X-3--3-3-3-3-3-3-3------|
Eb|-4-4-4-4-6-6-6-X-1--1-1-1-1-1-1-1------|    X2

[Verse]
Guitar 1
eb|---------------------------------------|
Bb|---------------------------------------|
Gb|--6-5----------------------------------|
Db|---------------------------------------|
Ab|---------------------4/88/66-----------|
Eb|-----------------------------8---------|

eb|----------------------4-------6--4-----|
Bb|-------------------------6--6----------|
Gb|--6-5----------------------------------|
Db|---------------------------------------|
Ab|---------------------------------------|
Eb|---------------------------------------|

Guitar 2
PM|
eb|---------------------------------------|
Bb|---------------------------------------|
Gb|---------------------------------------|
Db|---------------------------------------|
Ab|-6-6-6-6-8-8-8-X-3--3-3-3-3-3-3-3------|
Eb|-4-4-4-4-6-6-6-X-1--1-1-1-1-1-1-1------|

PM|
eb|---------------------------------------|
Bb|---------------------------------------|
Gb|---------------------------------------|
Db|---------------------------------------|
Ab|-6-6-6-6-8-8-8-X-3--3-3-3-3-3-3-3------|
Eb|-4-4-4-4-6-6-6-X-1--1-1-1-1-1-1-1------|

[Chorus]
Guitar 1
eb|--13-------------11----13----|-13-------------11----18-16-|
Bb|-----13-14-13/11----11----13-|----13-14-13/11----11-------|
Gb|-----------------------------|----------------------------|
Db|-----------------------------|----------------------------|
Ab|-----------------------------|----------------------------|
Eb|-----------------------------|----------------------------|
                                                                                                                  
eb|--13-------------11----13----|-13-------------18----16----|
Bb|-----13-14-13/11----11----13-|----13-14-13/18----18----16-|
Gb|-----------------------------|----------------------------|
Db|-----------------------------|----------------------------|
Ab|-----------------------------|----------------------------|
Eb|-----------------------------|----------------------------|     

Guitar 2
eb|---------------------------------------|
Bb|---------------------------------------|
Gb|---------------------------------------|
Db|-6-6-6-6-8-8-8-X-3--3-3-3-3-3-3-3------|
Ab|-6-6-6-6-8-8-8-X-3--3-3-3-3-3-3-3------|
Eb|-4-4-4-4-6-6-6-X-1--1-1-1-1-1-1-1------|

eb|---------------------------------------|
Bb|---------------------------------------|
Gb|---------------------------------------|
Db|-6-6-6-6-8-8-8-X-3--3-3-3-3-3-3-3------|
Ab|-6-6-6-6-8-8-8-X-3--3-3-3-3-3-3-3------|
Eb|-4-4-4-4-6-6-6-X-1--1-1-1-1-1-1-1------|

[Verse]
Guitar 1
eb|---------------------------------------|
Bb|---------------------------------------|
Gb|--6-5----------------------------------|
Db|---------------------------------------|
Ab|---------------------4/88/66-----------|
Eb|-----------------------------8---------|

eb|----------------------4-------6--4-----|
Bb|-------------------------6--6----------|
Gb|--6-5----------------------------------|
Db|---------------------------------------|
Ab|---------------------------------------|
Eb|---------------------------------------|

Guitar 2
PM|
eb|---------------------------------------|
Bb|---------------------------------------|
Gb|---------------------------------------|
Db|---------------------------------------|
Ab|-6-6-6-6-8-8-8-X-3--3-3-3-3-3-3-3------|
Eb|-4-4-4-4-6-6-6-X-1--1-1-1-1-1-1-1------|

PM|
eb|---------------------------------------|
Bb|---------------------------------------|
Gb|---------------------------------------|
Db|---------------------------------------|
Ab|-6-6-6-6-8-8-8-X-3--3-3-3-3-3-3-3------|
Eb|-4-4-4-4-6-6-6-X-1--1-1-1-1-1-1-1------|

[Chorus]
Guitar 1
eb|--13-------------11----13----|-13-------------11----18-16-|
Bb|-----13-14-13/11----11----13-|----13-14-13/11----11-------|
Gb|-----------------------------|----------------------------|
Db|-----------------------------|----------------------------|
Ab|-----------------------------|----------------------------|
Eb|-----------------------------|----------------------------|
                                                                                                                    
eb|--13-------------11----13----|-13-------------18----16----|
Bb|-----13-14-13/11----11----13-|----13-14-13/18----18----16-|
Gb|-----------------------------|----------------------------|
Db|-----------------------------|----------------------------|
Ab|-----------------------------|----------------------------|
Eb|-----------------------------|----------------------------|     

Guitar 2
eb|---------------------------------------|
Bb|---------------------------------------|
Gb|---------------------------------------|
Db|-6-6-6-6-8-8-8-X-3--3-3-3-3-3-3-3------|
Ab|-6-6-6-6-8-8-8-X-3--3-3-3-3-3-3-3------|
Eb|-4-4-4-4-6-6-6-X-1--1-1-1-1-1-1-1------|

eb|---------------------------------------|
Bb|---------------------------------------|
Gb|---------------------------------------|
Db|-6-6-6-6-8-8-8-X-3--3-3-3-3-3-3-3------|
Ab|-6-6-6-6-8-8-8-X-3--3-3-3-3-3-3-3------|
Eb|-4-4-4-4-6-6-6-X-1--1-1-1-1-1-1-1------|

[Bridge]
Guitar 2
eb|--------------------------------------------------------|--------------------------------|
Bb|--------------------------------------------------------|--------------------------------|
Gb|-----------------------------8-8-8-8-8-8-8-8-8-8-8-8-8-8|6-6-6-6-6-6-6-6-----------------|
Db|-6-6-6-6-6-6-6-6-6-6-6-6-6-6-8-8-8-8-8-8-8-8-8-8-8-8-8-8|6-6-6-6-6-6-6-6-8-8-8-8-8-8-8-8-|
Ab|-6-6-6-6-6-6-6-6-6-6-6-6-6-6-6-6-6-6-6-6-6-6-6-6-6-6-6-6|4-4-4-4-4-4-4-4-8-8-8-8-8-8-8-8-|
Eb|-4-4-4-4-4-4-4-4-4-4-4-4-4-4----------------------------|----------------6-6-6-6-6-6-6-6-|

eb|---------------------------|------------------------------|
Bb|---------------------------|------------------------------|
Gb|---------------------------|------------------------------|
Db|-3-3---2/3-3---3-3---2/3-3-|-3-3---2/3-3---3-3---2/3-3----|
Ab|-3-3---2/3-3---3-3---2/3-3-|-3-3---2/3-3---3-3---2/3-3----|
Eb|-1-1---0/1-1---1-1---0/1-1-|-1-1---0/1-1---1-1---0/1-1----|

Guitar 1 (After second part of the Bridge)
eb|-----------------------------|-----------------------|
Bb|-----------------------------|-----------------------|
Gb|--------------------8b-------|---------------------8b|
Db|---------10b-----------------|---------10b-----------|
Ab|-8-8-8-8-----8-8-8-8---------|-8-8-8-8------8-8-8-8--|
Eb|-----------------------------|-----------------------|

eb|-----------------------------|-----------9b------------15b|
Bb|------------9b------------11b|----------------------------|
Gb|-10-10-10-10---10-10-10-10---|10-10-10-10---10-10-10-10---|
Db|-----------------------------|----------------------------|
Ab|-----------------------------|----------------------------|
Eb|-----------------------------|----------------------------|

Breakdown 
Guitar 2
eb|----------------------------------------|
Bb|----------------------------------------|
Gb|----------------------------------------|
Db|-6-6-6-6-8-8-8---3--3-3-3-3-3-3-3-------|
Ab|-6-6-6-6-8-8-8---3--3-3-3-3-3-3-3-------|
Eb|-4-4-4-4-6-6-6---1--1-1-1-1-1-1-1-------|

eb|----------------------------------------|
Bb|----------------------------------------|
Gb|----------------------------------------|
Db|-6-6-6-6-8-8-8---3--3-3-3-3-3-3-3-------|
Ab|-6-6-6-6-8-8-8---3--3-3-3-3-3-3-3-------|
Eb|-4-4-4-4-6-6-6---1--1-1-1-1-1-1-1-------|

eb|----------------------------------------|
Bb|----------------------------------------|
Gb|-3-3-3-3-6-6-6------------5-5-5-5-------|
Db|-3-3-3-3-6-6-6--6--6-6-6--5-5-5-5-------|
Ab|-1-1-1-1-4-4-4--6--6-6-6--3-3-3-3-------|
Eb|----------------4--4-4-4----------------|

eb|----------------------------------------|
Bb|----------------------------------------|
Gb|----------------------------------------|
Db|-6-6-6-6-8-8-8---3--3-3-3-3-3-3-3-------|
Ab|-6-6-6-6-8-8-8---3--3-3-3-3-3-3-3-------|
Eb|-4-4-4-4-6-6-6---1--1-1-1-1-1-1-1-------|

[Chorus]
Guitar 1
eb|--13-------------11----13----|-13-------------11----18-16-|
Bb|-----13-14-13/11----11----13-|----13-14-13/11----11-------|
Gb|-----------------------------|----------------------------|
Db|-----------------------------|----------------------------|
Ab|-----------------------------|----------------------------|
Eb|-----------------------------|----------------------------|                                                             
                                                          
eb|--13-------------11----13----|-13-------------18----16----|
Bb|-----13-14-13/11----11----13-|----13-14-13/18----18----16-|
Gb|-----------------------------|----------------------------|
Db|-----------------------------|----------------------------|
Ab|-----------------------------|----------------------------|
Eb|-----------------------------|----------------------------|     

Guitar 2
eb|---------------------------------------|
Bb|---------------------------------------|
Gb|---------------------------------------|
Db|-6-6-6-6-8-8-8-X-3--3-3-3-3-3-3-3------|
Ab|-6-6-6-6-8-8-8-X-3--3-3-3-3-3-3-3------|
Eb|-4-4-4-4-6-6-6-X-1--1-1-1-1-1-1-1------|

eb|---------------------------------------|
Bb|---------------------------------------|
Gb|---------------------------------------|
Db|-6-6-6-6-8-8-8-X-3--3-3-3-3-3-3-3------|
Ab|-6-6-6-6-8-8-8-X-3--3-3-3-3-3-3-3------|
Eb|-4-4-4-4-6-6-6-X-1--1-1-1-1-1-1-1------|

[Pre Outro]
Guitar 2
eb|----------------------------------|
Bb|----------------------------------|
Gb|----------------------------------|
Db|-6-6-6-6-6-6-6-6-5-5-5-5-5-5-5-5--|
Ab|-6-6-6-6-6-6-6-6-6-6-6-6-6-6-6-6--|
Eb|-4-4-4-4-4-4-4-4-3-3-3-3-3-3-3-3--|

eb|---------------------------|------------------------------|
Bb|---------------------------|------------------------------|
Gb|---------------------------|------------------------------|
Db|-3-3---2/3-3---3-3---2/3-3-|-3-3---2/3-3---3-3---2/3-3----|
Ab|-3-3---2/3-3---3-3---2/3-3-|-3-3---2/3-3---3-3---2/3-3----|
Eb|-1-1---0/1-1---1-1---0/1-1-|-1-1---0/1-1---1-1---0/1-1----|

[Outro]
eb|------------------------------------------------|------------------------------------------------|
Bb|------------------------------------------------|------------------------------------------------|
Gb|---7--------------------------------------------|--7-----6-----9-----------4-----7---------------|
Db|--7-7----7-----9-----4-----7-----9-----4-----2--|-7-7---7-7---9-9----4----4-4---7-7----7-----9---|
Ab|-5---5--7-7---9-9---4-4---7-7---9-9---4-4---2-2-|5---5-4---4-7---7--4-4--2---2-5---5--7-7---9-9--|
Eb|-------5---5-7---7-2---2-5---5-7---7-2---2-0---0|------------------2---2-------------5---5-7---7-|

eb|------------------------------------------------|------------------------------------------------|
Bb|------------------------------------------------|------------------------------------------------|
Gb|---7-----6-----4-----2-----------7--------------|--7-----------------------------7-----7---------|
Db|--7-7---7-7---4-4---2-2----4----7-7----7-----9--|-7-7----7-----6-----4-----2----7-7---7-7----7---|
Ab|-5---5-4---4-2---2-0---0--4-4--5---5--7-7---9-9-|5---5--7-7---7-7---4-4---2-2--5---5-5---5--7-7--|
Eb|-------------------------2---2-------5---5-7---7|------5---5-4---4-2---2-0---0-------------5---5-|

eb|------------------------------|---------------------------|------------------------------|
Bb|------------------------------|---------------------------|------------------------------|
Gb|------------------------------|---------------------------|------------------------------|
Db|---6-----4-----4-----4-----4--|------4-----4-----4-----4--|------4-----4-----4-----4-----|
Ab|--7-7---4-4---4-4---4-4---4-4-|-----4-4---4-4---4-4---4-4-|-----4-4---4-4---4-4---4-4----|
Eb|-4---4-2---2-2---2-2---2-2---2|0-0h2---2-2---2-2---2-2---2|0-0h2---2-2---2-2---2-2---2---|

eb|-----------------|-----------------|
Bb|-----------------|-----------------|
Gb|-----------------|-----------------|
Db|--------4-----4--|--4-----4--------|
Ab|-------4-4---4-4-|-4-4---4-4-------|
Eb|--0-0h2---2-2---2|2---2-2---2-0-0h2|

            
Submit corrections


        Out Of Mana lessons Hard to play? Try these video lessons and learn fast Out Of Mana lessons
        
↑ Back to top | Tablatures and chords for acoustic guitar and electric guitar, ukulele, drums are parodies/interpretations of the original songs. You may use it for private study, scholarship, research or language learning purposes only