Home » B » Brand New »

Brand New - Magazines Tabs

Artists:  A B C D E F G H I J K L M N O P Q R S T U V W X Y Z # 

Magazines Tabs

(ver. 1) Click to play this song!
Brand New

INTRO/VERSE

e|----------------|----------------|----------------|----------------|
B|----------------|----------------|----------------|----------------|
G|----------------|-9-9------------|----------------|-9-9------------|
D|-7-7------------|-9-9------------|-7-7------------|-9-9------------|
A|-7-7------------|-7-7------------|-7-7------------|-7-7------------|
E|-5-5------------|----------------|-5-5------------|----------------|

e|----------------|----------------|----------------|----------------|
B|----------------|----------------|----------------|----------------|
G|----------------|-7--7-7-7-7-7-7-|----------------|-7--7-7-7-7-7-7-|
D|-9---9-9--9-9-9-|-7--7-7-7-7-7-7-|-9---9-9--9-9-9-|-7--7-7-7-7-7-7-|
A|-9---9-9--9-9-9-|-5--5-5-5-5-5-5-|-9---9-9--9-9-9-|-5--5-5-5-5-5-5-|
E|-7---7-7--7-7-7-|----------------|-7---7-7--7-7-7-|----------------|

e|----------------|----------------||
B|----------------|----------------||
G|----------------|----------------||   x2
D|-7-7------------|----------------||
A|-7-7------------|-7-7------------||
E|-5-5------------|-5-5------------||

Chorus

GUITAR 1
e|-12--------------------|-12--------------------|
B|-----10-12-14-12-10-10-|-----10-12-14-12-10-10-|
G|-----------------------|-----------------------|
D|-----------------------|-----------------------|
A|-----------------------|-----------------------|
E|-----------------------|-----------------------|

e|-12--------------------|-----------------------|
B|-----10-12-14-12-10-10-|-10--------------------|
G|-----------------------|-----------------------|  play over guitar 2
D|-----------------------|-----------------------|
A|-----------------------|-----------------------|
E|-----------------------|-----------------------|


GUITAR 2
e|-----------------------|----------------------|
B|-----------------------|----------------------|
G|-----------------------|9--9--9--9--9--9--9--9|
D|7--7--7--7--7--7--7--7-|9--9--9--9--9--9--9--9|
A|7--7--7--7--7--7--7--7-|7--7--7--7--7--7--7--7|
E|5--5--5--5--5--5--5--5-|----------------------|

e|-----------------------|----------------------|
B|-----------------------|----------------------|
G|11-11-11-11-11-11-11-11|7--7--7--7--7--7--7--7|
D|11-11-11-11-11-11-11-11|7--7--7--7--7--7--7--7| x4
A|9--9--9--9--9--9--9--9-|5--5--5--5--5--5--5--5|
E|-----------------------|----------------------|

GUITAR 1+2
pm......................................................................
e|-----------------------|----------------------|----------------------|
B|-----------------------|----------------------|----------------------|
G|-----------------------|----------------------|----------------------|
D|7--7--7--7--7--7--7--7-|9--9--9--9--9--9--9--9|9--9--9--9--9--9--9--9|
A|5--5--5--5--5--5--5--5-|7--7--7--7--7--7--7--7|7--7--7--7--7--7--7--7|
E|-----------------------|----------------------|----------------------|

REPEAT VERSE + CHORUS

INTERLUDE
e|-----------------|----------------|-----------------|----------------|
B|-----------------|----------------|-----------------|----------------|
G|-----------------|----------------|-----------------|----------------|
D|-----------------|----------------|-----------------|----------------| x2
A|------4---2---0--|----4---4-5-2-0-|------4---2---0--|----4---4-5-2-0-|
E|--5-5------------|----------------|-----------------|----------------|

e|-----------------|----------------|-----------------|----------------|
B|-----------------|----------------|-----------------|----------------|
G|-----------------|----------------|-----------------|----------------|
D|-----------------|----------------|-----------------|----------------| 
A|------4---2---0--|----4---4-5-2-0-|-0---------------|----------------|
E|--5-5------------|----------------|-----------------|----------------|

CHORUS

VERSE 

END

any questions or queries then please dont be afraid to email at 
thanks
            
Submit corrections

↑ Back to top | Tablatures and chords for acoustic guitar and electric guitar, ukulele, drums are parodies/interpretations of the original songs. You may use it for private study, scholarship, research or language learning purposes only