» » »

Brand New - I Will Play My Game Beneath The Spin Of Tabs

Artists:  A B C D E F G H I J K L M N O P Q R S T U V W X Y Z # 

I Will Play My Game Beneath The Spin Of Tabs

(ver. 1) Click to play this song!
Brand New
 Rating:
4/5 (4 votes)

 I Will Play My Game Beneath The Spin Of lessons Tabs too difficult? Try these video lessons and learn fast
 
                
I kind of put both guitar parts together because
i only feel like tabbing one guitar track.

and play an E7 or an E i dont care. they both sound ok.

*=palm mute

intro/verse
    Am   E7   C Fmaj7 G7
Eb|-0----0----0----0--1-|
Bb|-1----0----1----1--0-|
Gb|-2----1----0----2--0-|
Db|-2----0----2----3--0-|
Ab|-0----2----3----3--2-|
Eb|------0------------3-|

chorus
(disorted)
    C
Eb|---------------------------------|
Bb|---------------------------------|
Gb|-5-5-5-5-5-5-5-5-5-5-5-5-5-5-5-5-|
Db|-5-5-5-5-5-5-5-5-5-5-5-5-5-5-5-5-|
Ab|-3-3-3-3-3-3-3-3-3-3-3-3-3-3-3-3-|
Eb|-3-3-3-3-3-3-3-3-3-3-3-3-3-3-3-3-|
    F
Eb|---------------------------------|
Bb|---------------------------------|
Gb|---------------------------------|
Db|-3-3-3-3-3-3-3-3-3-3-3-3-3-3-3-3-|
Ab|-3-3-3-3-3-3-3-3-3-3-3-3-3-3-3-3-|
Eb|-1-1-1-1-1-1-1-1-1-1-1-1-1-1-1-1-|
   G
Eb|---------------------------------|
Bb|---------------------------------|
Gb|---------------------------------|
Db|-5-5-5-5-5-5-5-5-5-5-5-5-5-5-5-5-|
Ab|-5-5-5-5-5-5-5-5-5-5-5-5-5-5-5-5-|
Eb|-3-3-3-3-3-3-3-3-3-3-3-3-3-3-3-3-|

fill before 2nd verse

Eb|-----0-0-----0-0-|
Bb|-----1-1-----0-0-|
Gb|-----2-2-----1-1-|x4
Db|-2-2-2-2-----0-0-|
Ab|-0-0-0-0-2-2-2-2-|
Eb|---------0-0-0-0-|
    * *     * *

verse again

chorus again

next part:

Eb|-----------------|
Bb|-5---5-----5---5-|
Gb|---5---5-7---7---|
Db|-----------------|
Ab|-----------------|
Eb|-----------------|

rest of song.

Eb|---------------------------------|
Bb|---------------------------------|
Gb|-5-5-5-5-5-5-5-5-5-5-5-5-5-5-5-5-|
Db|-5-5-5-5-5-5-5-5-5-5-5-5-5-5-5-5-|
Ab|-3-3-3-3-3-3-3-3-3-3-3-3-3-3-3-3-|
Eb|---------------------------------|

Eb|---------------------------------|
Bb|---------------------------------|
Gb|-2-2-2-2-2-2-2-2-2-2-2-2-2-2-2-2-|
Db|-2-2-2-2-2-2-2-2-2-2-2-2-2-2-2-2-|
Ab|-0-0-0-0-0-0-0-0-0-0-0-0-0-0-0-0-|
Eb|---------------------------------|

Eb|---------------------------------|
Bb|---------------------------------|
Gb|---------------------------------|
Db|-2-2-2-2-2-2-2-2-2-2-2-2-2-2-2-2-|
Ab|-2-2-2-2-2-2-2-2-2-2-2-2-2-2-2-2-|
Eb|-0-0-0-0-0-0-0-0-0-0-0-0-0-0-0-0-|

Eb|---------------------------------|
Bb|---------------------------------|
Gb|---------------------------------|
Db|-5-5-5-5-5-5-5-5-5-5-5-5-5-5-5-5-|
Ab|-5-5-5-5-5-5-5-5-5-5-5-5-5-5-5-5-|
Eb|-3-3-3-3-3-3-3-3-3-3-3-3-3-3-3-3-|

then this again

Eb|-----0-0-----0-0-|
Bb|-----1-1-----0-0-|
Gb|-----2-2-----1-1-|
Db|-2-2-2-2-----0-0-|
Ab|-0-0-0-0-2-2-2-2-|
Eb|---------0-0-0-0-|
    * *     * *

then chorus

then this with alot of noise from the second guitar

Eb|-----0-0-----0-0-|
Bb|-----1-1-----0-0-|
Gb|-----2-2-----1-1-|
Db|-2-2-2-2-----0-0-|
Ab|-0-0-0-0-2-2-2-2-|
Eb|---------0-0-0-0-|

and end on Am.
            
Submit corrections


        I Will Play My Game Beneath The Spin Of lessons Hard to play? Try these video lessons and learn fast I Will Play My Game Beneath The Spin Of lessons
        
↑ Back to top | Tablatures and chords for acoustic guitar and electric guitar, ukulele, drums are parodies/interpretations of the original songs. You may use it for private study, scholarship, research or language learning purposes only