» » »

Brand New - In A Jar Tabs

Artists:  A B C D E F G H I J K L M N O P Q R S T U V W X Y Z # 

In A Jar Tabs

(ver. 1) Click to play this song!
Brand New
 Rating:
4/5 (4 votes)

 In A Jar lessons Tabs too difficult? Try these video lessons and learn fast
 
                Tuning Standard (EADGBE)

Ok so here is In A Jar by Brand New.  Please comment if you have suggestions, I 
couldn't really figure out the 'Pre-Chorus' part.

Intro/Verse: 
Guitar 1
|-----------------------------|  |-------------------------|
|/12------------------------0-|  |-------------------------|
|----9-7-4-7-4-7b(1/2)-4------|  |-------7-------4/7\4-----|x1
|-----------------------------|x3|-----4---5-5---2/5\2-----|
|-------------------------3---|  |--/5------5--0-----------|
|-----------------------------|  |-------------------------|

(Or this can be played for the intro/verse parts thanks to llBrunoGCll)
|--5/7--0---------------------|
|----------3p0-3p0-3p0~----0--|
|-----------------------------|
|-----------------------------|
|------------------------3----|
|-----------------------------|

Pre-Chorus: (Maybe something like this, I don't know)
Guitar 1
|-12-12-12-12-12-12--12-12-12-12-12--12-12-12-12-12--12-12-12--|
|-0--0--0--0--0--0---0--0--0--0--0---0--0--0--0--0---0--0--0---|
|-9--9--9--9--9--9---9--9--9--9--9---9--9--9--9--9---9--9--9---|
|-9--9--10-12-10-9---9--10-10-9--9---9--10-12-10-9---9--10-10--|
|--------------------------------------------------------------|
|--------------------------------------------------------------|

Chorus: (Guitar 1 bend the notes each time a little to get the same effect)
Guitar 1 clean (12 is a twelve)
|--------------------------------------|
|--------------------------------------|
|--------------------------------------| x3
|--------------------------------------|
|--------------------------------------|
|-0-0-12-00-12-00-12-00-12-8888--------|
|
|Guitar 2: (10 is a ten)
|--------------------------------------|
|--------------------------------------|
|--------------------------------------| x3
|-2-2----22----22----22----10101010----|
|-2-2----22----22----22----10101010----|
|-0-0----00----00----00----8-8-8-8-----|

Guitar 1 (10 is a ten)
|--------------------------------------|
|--------------------------------------|
|--------------------------------------| 
|--------------------------------------|
|--------------------------------------|
|-1010101010101010-55555555------------|
|
|Guitar 2: (10 is a ten) (12 is a twelve)
|--------------------------------------|
|--------------------------------------|
|--------------------------------------| 
|-1212121212121212-77777777------------|
|-1212121212121212-77777777------------|
|-1010101010101010-55555555------------|

Verse:
Guitar 1
|-----------------------------|  |-------------------------|
|/12------------------------0-|  |-------------------------|
|----9-7-4-7-4-7b(1/2)-4------|  |-------7-------4/7\4-----|x1
|-----------------------------|x3|-----4---5-5---2/5\2-----|
|-------------------------3---|  |--/5------5--0-----------|
|-----------------------------|  |-------------------------|

Pre-Chorus:
Guitar 1
|-12-12-12-12-12-12--12-12-12-12-12--12-12-12-12-12--12-12-12--|
|-0--0--0--0--0--0---0--0--0--0--0---0--0--0--0--0---0--0--0---|
|-9--9--9--9--9--9---9--9--9--9--9---9--9--9--9--9---9--9--9---|
|-9--9--10-12-10-9---9--10-10-9--9---9--10-12-10-9---9--10-10--|
|--------------------------------------------------------------|
|--------------------------------------------------------------|

Chorus: (Guitar 1 bend the notes each time a little to get the same effect)
Guitar 1 clean (12 is a twelve)
|--------------------------------------|
|--------------------------------------|
|--------------------------------------| x2
|--------------------------------------|
|--------------------------------------|
|-0-0-12-00-12-00-12-00-12-8888--------|
|
|Guitar 2: (10 is a ten)
|--------------------------------------|
|--------------------------------------|
|--------------------------------------| x2
|-2-2----22----22----22----10101010----|
|-2-2----22----22----22----10101010----|
|-0-0----00----00----00----8-8-8-8-----|

Guitar 1 clean (12 is a twelve)
|--------------------------------------|
|--------------------------------------|
|-----------14b(1/2)-------------------| 
|--------------------------------------|
|-----12b(1/2)-------------------------|
|-0-0----00----00-12-00-12-8888--------|
|
|Guitar 2: (10 is a ten)
|--------------------------------------|
|--------------------------------------|
|--------------------------------------| 
|-2-2----22----22----22----10101010----|
|-2-2----22----22----22----10101010----|
|-0-0----00----00----00----8-8-8-8-----|

Guitar 1 (10 is a ten)
|----------------------------------------------------|
|----------------------------------------------------|
|----------------------------------------------------| 
|----------------------------------------------------|
|----------------------------10---10-10-10---10---10-|
|-1010101010101010-55555555-8--8-8--8--8--8-8--8-8--8|
|
|Guitar 2: (10 is a ten) (12 is a twelve)
|----------------------------------------------------|
|----------------------------------------------------|
|----------------------------------------------------|
|-1212121212121212-77777777-1010101010101010-55555555|
|-1212121212121212-77777777-1010101010101010-55555555|
|-1010101010101010-55555555-8-8-8-8-8-8-8-8--33333333|


*Epic Breakdown*


Solo:
Guitar 1: (10 is a ten) (12 is a twelve)
|-----------------------------|  |-------------------------|
|-8-8-7-7-5-5-----------------|  |-8-8-7-7-10-10-12-12-----|
|-------------7-4-2-4---------|  |-------------------------|x1
|-----------------------------|x3|-------------------------|
|-----------------------------|  |-------------------------|
|-----------------------------|  |-------------------------|
|
|Guitar 2: (10 is a ten) (12 is a twelve)
|-----------------------------|  |-------------------------|
|-----------------------------|  |-------------------------|
|-----------------------------|  |-------------------------|x1
|-----------------------------|x3|-------------------------|
|-----------------------------|  |-------------------------|
|00-12-00-12-00-12-00-12-8888-|  |1010101010101010-55555555|

Guitar 1: (10 is a ten) (12 is a twelve)
|-----------------------------|  |-------------------------|
|-8-8-7-7-5-5-----------------|  |-8-8-7-7-10-10-12-12-----|
|-------------7-4-2-4---------|  |-------------------------|x1
|-----------------------------|x3|-------------------------|
|-----------------------------|  |-------------------------|
|-----------------------------|  |-------------------------|
|
|Guitar 2: (Bend 14 on the first and third time through)
|          (10 is a ten) (12 is a twelve) 
|-----------------------------|  |-------------------------|
|-----------------------------|  |-------------------------|
|-----------------------------|x3|-------------------------|x1
|---------14b(1/2)------------|  |-------------------------|
|-----------------------------|  |-------------------------|
|00-12-00----00-12-00-12-8888-|  |1010101010101010-55555555|

Ending:
Guitar 1: (10 is a ten) (12 is a twelve)
|-----------------------------|  
|-12-12-12-12-----------------|  
|-------------10-10-10-10-----|x2
|-----------------------------|
|-----------------------------|  
|-----------------------------|
|
|Guitar 2: (10 is a ten) (12 is a twelve)
|----------------------------------------------------|
|----------------------------------------------------|
|----------------------------------------------------|
|--1010101010101010-55555555-88888888-333333---------|
|--1010101010101010-55555555-88888888-333333---------|
|--8-8-8-8-8-8-8-8--33333333-66666666-111111---------|
|
|Guitar 3:
|-----------------------------------------------------|
|-----------------------------------------------------|
|-----------------------------------------------------| 
|-----------------------------------------------------|
|---10---10-10-10---10---10---10---10-10-10---10---10-|
|--8--8-8--8--8--8-8--8-8--8-8--8-8--8--8--8-8--8-8--8|
            
Submit corrections


        In A Jar lessons Hard to play? Try these video lessons and learn fast In A Jar lessons
        
↑ Back to top | Tablatures and chords for acoustic guitar and electric guitar, ukulele, drums are parodies/interpretations of the original songs. You may use it for private study, scholarship, research or language learning purposes only