» » »

Brand New - I Am The Nightmare Tabs

Artists:  A B C D E F G H I J K L M N O P Q R S T U V W X Y Z # 

I Am The Nightmare Tabs

(ver. 1) Click to play this song!
Brand New
 Rating:
4.4/5 (8 votes)

 I Am The Nightmare  lessons Tabs too difficult? Try these video lessons and learn fast
 
                [Intro]

G1
e|----------------|----------------|----5-5-8-8-----|5---5---5-------|
B|----3-3-6-6-----|3-3-------------|6-6---------6-6-|--8---8---8-6-5-|
G|3-3---------3-3-|----5-5-3-3-2-2-|----------------|----------------|
D|----------------|----------------|----------------|----------------|
A|----------------|----------------|----------------|----------------|
E|----------------|----------------|----------------|----------------|

G2
e|----------------|----------------|----------------|----------------|
B|----------------|----------------|----------------|----------------|
G|7-7-7-7-7-7-7-7-|3-3-3-3-3-3-3-3-|----------------|----------------|
D|7-7-7-7-7-7-7-7-|3-3-3-3-3-3-3-3-|3-3-3-3-3-3-3-3-|3-3-3-3-2-2-2-2-|
A|5-5-5-5-5-5-5-5-|1-1-1-1-1-1-1-1-|3-3-3-3-3-3-3-3-|3-3-3-3-2-2-2-2-|
E|----------------|----------------|1-1-1-1-1-1-1-1-|1-1-1-1-0-0-0-0-|

e|----------------|----------------|----5-5-8-8-----|5---5---5-------|
B|----3-3-6-6-----|3-3-------------|6-6---------6-6-|--8---8---8-6-5/|
G|3-3---------3-3-|----5-5-3-3-2-2-|----------------|----------------|
D|----------------|----------------|----------------|----------------|
A|----------------|----------------|----------------|----------------|
E|----------------|----------------|----------------|----------------|

e|----------------|----------------|----------------|----------------|
B|----------------|----------------|----------------|----------------|
G|7-7-7-7-7-7-7-7-|3-3-3-3-3-3-3-3-|----------------|--------5-5-5-5-|
D|7-7-7-7-7-7-7-7-|3-3-3-3-3-3-3-3-|3-3-3-3-3-3-3-3-|3-3-3-3-5-5-5-5-|
A|5-5-5-5-5-5-5-5-|1-1-1-1-1-1-1-1-|3-3-3-3-3-3-3-3-|3-3-3-3-3-3-3-3-|
E|----------------|----------------|1-1-1-1-1-1-1-1-|1-1-1-1---------|


[Verse]

e|7b8~------------|--10--10----10--|----------------|----------------|
B|----------------|13--13----------|13--------------|------------13-/|
G|----------------|----------------|----------------|----------------|
D|----------------|----------------|----------------|----------------|
A|----------------|----------------|----------------|----------------|
E|----------------|----------------|----------------|----------------|

e|----------------|----------------|----------------|----------------|
B|----------------|----------------|----------------|----------------|
G|7-7-7-7-7-7-7-7-|3-3-3-3-3-3-3-3-|----------------|----------------|
D|7-7-7-7-7-7-7-7-|3-3-3-3-3-3-3-3-|3-3-3-3-3-3-3-3-|3-3-3-3-2-2-2-2-|
A|5-5-5-5-5-5-5-5-|1-1-1-1-1-1-1-1-|3-3-3-3-3-3-3-3-|3-3-3-3-2-2-2-2-|
E|----------------|----------------|1-1-1-1-1-1-1-1-|1-1-1-1-0-0-0-0-|

e|----------------|----------------|----------------|----------------|
B|10--------------|10h13-------13--|10--------------|----------------|
G|----------------|----------------|----------------|----------------|
D|----------------|----------------|----------------|----------------|
A|----------------|----------------|----------------|----------------|
E|----------------|----------------|----------------|----------------|

e|----------------|----------------|----------------|----------------|
B|----------------|----------------|----------------|----------------|
G|7-7-7-7-7-7-7-7-|3-3-3-3-3-3-3-3-|----------------|--------5-5-5-5-|
D|7-7-7-7-7-7-7-7-|3-3-3-3-3-3-3-3-|3-3-3-3-3-3-3-3-|3-3-3-3-5-5-5-5-|
A|5-5-5-5-5-5-5-5-|1-1-1-1-1-1-1-1-|3-3-3-3-3-3-3-3-|3-3-3-3-3-3-3-3-|
E|----------------|----------------|1-1-1-1-1-1-1-1-|1-1-1-1---------|

e|----------------|--10--10----10--|----------------|----------------|
B|10-h13----------|13--13----------|13--------------|------------13-/|
G|----------------|----------------|----------------|----------------|
D|----------------|----------------|----------------|----------------|
A|----------------|----------------|----------------|----------------|
E|----------------|----------------|----------------|----------------|

e|----------------|----------------|----------------|----------------|
B|----------------|----------------|----------------|----------------|
G|7-7-7-7-7-7-7-7-|3-3-3-3-3-3-3-3-|----------------|----------------|
D|7-7-7-7-7-7-7-7-|3-3-3-3-3-3-3-3-|3-3-3-3-3-3-3-3-|3-3-3-3-2-2-2-2-|
A|5-5-5-5-5-5-5-5-|1-1-1-1-1-1-1-1-|3-3-3-3-3-3-3-3-|3-3-3-3-2-2-2-2-|
E|----------------|----------------|1-1-1-1-1-1-1-1-|1-1-1-1-0-0-0-0-|

e|----------------|----------------|----------------|----------------|
B|10--------------|10h13-------13--|10b12r10--b12r10|-b12r10--b12r10-|
G|----------------|----------------|----------------|----------------|
D|----------------|----------------|----------------|----------------|
A|----------------|----------------|----------------|----------------|
E|----------------|----------------|----------------|----------------|

e|----------------|----------------|----------------|----------------|
B|----------------|----------------|----------------|----------------|
G|7-7-7-7-7-7-7-7-|3-3-3-3-3-3-3-3-|----------------|--------5-5-5-5-|
D|7-7-7-7-7-7-7-7-|3-3-3-3-3-3-3-3-|3-3-3-3-3-3-3-3-|3-3-3-3-5-5-5-5-|
A|5-5-5-5-5-5-5-5-|1-1-1-1-1-1-1-1-|3-3-3-3-3-3-3-3-|3-3-3-3-3-3-3-3-|
E|----------------|----------------|1-1-1-1-1-1-1-1-|1-1-1-1---------|


[Chorus] 

G1 & G2
e|----------------|----------------|----------------|----------------|
B|----------------|----------------|----------------|----------------|
G|3-3-3-3-3-3-3-3-|3-3-3-3-3-3-3-3-|----------------|----------------|
D|3-3-3-3-3-3-3-3-|3-3-3-3-3-3-3-3-|3-3-3-3-3-3-3-3-|3-3-3-3-2-2-2-2-|
A|1-1-1-1-1-1-1-1-|1-1-1-1-1-1-1-1-|3-3-3-3-3-3-3-3-|3-3-3-3-2-2-2-2-|
E|----------------|----------------|1-1-1-1-1-1-1-1-|1-1-1-1-0-0-0-0-|


e|----------------|----------------|----------------|----------------|
B|----------------|----------------|----------------|----------------|
G|3-3-3-3-3-3-3-3-|3-3-3-3-3-3-3-3-|----------------|--------5-5-5-5-|
D|3-3-3-3-3-3-3-3-|3-3-3-3-3-3-3-3-|3-3-3-3-3-3-3-3-|3-3-3-3-5-5-5-5-|
A|1-1-1-1-1-1-1-1-|1-1-1-1-1-1-1-1-|3-3-3-3-3-3-3-3-|3-3-3-3-3-3-3-3-|
E|----------------|----------------|1-1-1-1-1-1-1-1-|1-1-1-1---------|

G1
e|-----------------------|-----------------------|-----------------------|-----------------------|
B|-----------------------|-----------------------|-----------------------|-----------------------|
G|10-10-10-10-10-10-10-10|10-10-10-10-10-10-10-10|10-10-10-10-10-10-10-10|10-10-10-10-10-10-10-10|
D|-----------------------|-----------------------|-----------------------|-----------------------|
A|8--8--8--8--8--8--8--8-|8--8--8--8--8--8--8--8-|8--8--8--8--8--8--8--8-|8--8--8--8--8--8--8--8-|
E|-----------------------|-----------------------|-----------------------|-----------------------|

G2
e|----------------|----------------|----------------|----------------|
B|----------------|----------------|----------------|----------------|
G|3-3-3-3-3-3-3-3-|3-3-3-3-3-3-3-3-|----------------|----------------|
D|3-3-3-3-3-3-3-3-|3-3-3-3-3-3-3-3-|3-3-3-3-3-3-3-3-|3-3-3-3-2-2-2-2-|
A|1-1-1-1-1-1-1-1-|1-1-1-1-1-1-1-1-|3-3-3-3-3-3-3-3-|3-3-3-3-2-2-2-2-|
E|----------------|----------------|1-1-1-1-1-1-1-1-|1-1-1-1-0-0-0-0-|

e|------------------------|------------------------|-----------------------|----------------|
B|------------------------|------------------------|-----------------------|----------------|
G|10-10-10-10-10-10-10-10-|10-10-10-10-10-10-10-10-|10-10-10-10-10-10-10-10|9-9-9-9-9-9-9-9-|
D|------------------------|------------------------|-----------------------|----------------|
A|8--8--8--8--8--8--8--8--|8--8--8--8--8--8--8--8--|8--8--8--8--8--8--8--8-|7-7-7-7-7-7-7-7-|
E|------------------------|------------------------|-----------------------|----------------|

e|----------------|----------------|----------------|----------------|
B|----------------|----------------|----------------|----------------|
G|3-3-3-3-3-3-3-3-|3-3-3-3-3-3-3-3-|----------------|--------5-5-5-5-|
D|3-3-3-3-3-3-3-3-|3-3-3-3-3-3-3-3-|3-3-3-3-3-3-3-3-|3-3-3-3-5-5-5-5-|
A|1-1-1-1-1-1-1-1-|1-1-1-1-1-1-1-1-|3-3-3-3-3-3-3-3-|3-3-3-3-3-3-3-3-|
E|----------------|----------------|1-1-1-1-1-1-1-1-|1-1-1-1---------|


[Break]

e|----------------|----------------|----5-5-8-8-----|5---5---5-------|
B|----3-3-6-6-----|3-3-------------|6-6---------6-6-|--8---8---8-6-5-|
G|3-3---------3-3-|----5-5-3-3-2-2-|----------------|----------------|
D|----------------|----------------|----------------|----------------|
A|----------------|----------------|----------------|----------------|
E|----------------|----------------|----------------|----------------|

e|----------------|----------------|----------------|----------------|
B|----------------|----------------|----------------|----------------|
G|7-7-7-7-7-7-7-7-|3-3-3-3-3-3-3-3-|----------------|----------------|
D|7-7-7-7-7-7-7-7-|3-3-3-3-3-3-3-3-|3-3-3-3-3-3-3-3-|3-3-3-3-2-2-2-2-|
A|5-5-5-5-5-5-5-5-|1-1-1-1-1-1-1-1-|3-3-3-3-3-3-3-3-|3-3-3-3-2-2-2-2-|
E|----------------|----------------|1-1-1-1-1-1-1-1-|1-1-1-1-0-0-0-0-|


e|----------------|----------------|----5-5-8-8-----|5---5---5-------|
B|----3-3-6-6-----|3-3-------------|6-6---------6-6-|--8---8---8-6-5/|
G|3-3---------3-3-|----5-5-3-3-2-2-|----------------|----------------|
D|----------------|----------------|----------------|----------------|
A|----------------|----------------|----------------|----------------|
E|----------------|----------------|----------------|----------------|

e|----------------|----------------|----------------|----------------|
B|----------------|----------------|----------------|----------------|
G|7-7-7-7-7-7-7-7-|3-3-3-3-3-3-3-3-|----------------|--------5-5-5-5-|
D|7-7-7-7-7-7-7-7-|3-3-3-3-3-3-3-3-|3-3-3-3-3-3-3-3-|3-3-3-3-5-5-5-5-|
A|5-5-5-5-5-5-5-5-|1-1-1-1-1-1-1-1-|3-3-3-3-3-3-3-3-|3-3-3-3-3-3-3-3-|
E|----------------|----------------|1-1-1-1-1-1-1-1-|1-1-1-1---------|


[Verse]

e|7b8~------------|--10--10----10--|----------------|----------------|
B|----------------|13--13----------|13--------------|------------13-/|
G|----------------|----------------|----------------|----------------|
D|----------------|----------------|----------------|----------------|
A|----------------|----------------|----------------|----------------|
E|----------------|----------------|----------------|----------------|

e|----------------|----------------|----------------|----------------|
B|----------------|----------------|----------------|----------------|
G|7-7-7-7-7-7-7-7-|3-3-3-3-3-3-3-3-|----------------|----------------|
D|7-7-7-7-7-7-7-7-|3-3-3-3-3-3-3-3-|3-3-3-3-3-3-3-3-|3-3-3-3-2-2-2-2-|
A|5-5-5-5-5-5-5-5-|1-1-1-1-1-1-1-1-|3-3-3-3-3-3-3-3-|3-3-3-3-2-2-2-2-|
E|----------------|----------------|1-1-1-1-1-1-1-1-|1-1-1-1-0-0-0-0-|

e|----------------|----------------|----------------|----------------|
B|10--------------|10h13-------13--|10--------------|----------------|
G|----------------|----------------|----------------|----------------|
D|----------------|----------------|----------------|----------------|
A|----------------|----------------|----------------|----------------|
E|----------------|----------------|----------------|----------------|

e|----------------|----------------|----------------|----------------|
B|----------------|----------------|----------------|----------------|
G|7-7-7-7-7-7-7-7-|3-3-3-3-3-3-3-3-|----------------|--------5-5-5-5-|
D|7-7-7-7-7-7-7-7-|3-3-3-3-3-3-3-3-|3-3-3-3-3-3-3-3-|3-3-3-3-5-5-5-5-|
A|5-5-5-5-5-5-5-5-|1-1-1-1-1-1-1-1-|3-3-3-3-3-3-3-3-|3-3-3-3-3-3-3-3-|
E|----------------|----------------|1-1-1-1-1-1-1-1-|1-1-1-1---------|

e|12--12--12--12--|12--12--12--12--|12--12--12--12--|12--12--12--12--|
B|13--13--13--13--|13--13--13--13--|13--13--13--13--|13--13--13--13--|
G|14--14--14--14--|14--14--14--14--|14--14--14--14--|14--14--14--14--|
D|----------------|----------------|----------------|----------------|
A|----------------|----------------|----------------|----------------|
E|----------------|----------------|----------------|----------------|

e|----------------|----------------|----------------|----------------|
B|----------------|----------------|----------------|----------------|
G|7-7-7-7-7-7-7-7-|3-3-3-3-3-3-3-3-|----------------|----------------|
D|7-7-7-7-7-7-7-7-|3-3-3-3-3-3-3-3-|3-3-3-3-3-3-3-3-|3-3-3-3-2-2-2-2-|
A|5-5-5-5-5-5-5-5-|1-1-1-1-1-1-1-1-|3-3-3-3-3-3-3-3-|3-3-3-3-2-2-2-2-|
E|----------------|----------------|1-1-1-1-1-1-1-1-|1-1-1-1-0-0-0-0-|

e|12--12--12--12--|12--12--12--12--|----------------|----------------|
B|13--13--13--13--|13--13--13--13--|10~-------------|----------------|
G|14--14--14--14--|14--14--14--14--|12b14~----------|----------------|
D|----------------|----------------|----------------|----------------|
A|----------------|----------------|----------------|----------------|
E|----------------|----------------|----------------|----------------|

e|----------------|----------------|----------------|----------------|
B|----------------|----------------|----------------|----------------|
G|7-7-7-7-7-7-7-7-|3-3-3-3-3-3-3-3-|----------------|--------5-5-5-5-|
D|7-7-7-7-7-7-7-7-|3-3-3-3-3-3-3-3-|3-3-3-3-3-3-3-3-|3-3-3-3-5-5-5-5-|
A|5-5-5-5-5-5-5-5-|1-1-1-1-1-1-1-1-|3-3-3-3-3-3-3-3-|3-3-3-3-3-3-3-3-|
E|----------------|----------------|1-1-1-1-1-1-1-1-|1-1-1-1---------|


[Chorus] 

G1 & G2
e|----------------|----------------|----------------|----------------|
B|----------------|----------------|----------------|----------------|
G|3-3-3-3-3-3-3-3-|3-3-3-3-3-3-3-3-|----------------|----------------|
D|3-3-3-3-3-3-3-3-|3-3-3-3-3-3-3-3-|3-3-3-3-3-3-3-3-|3-3-3-3-2-2-2-2-|
A|1-1-1-1-1-1-1-1-|1-1-1-1-1-1-1-1-|3-3-3-3-3-3-3-3-|3-3-3-3-2-2-2-2-|
E|----------------|----------------|1-1-1-1-1-1-1-1-|1-1-1-1-0-0-0-0-|

e|----------------|----------------|----------------|----------------|
B|----------------|----------------|----------------|----------------|
G|3-3-3-3-3-3-3-3-|3-3-3-3-3-3-3-3-|----------------|--------5-5-5-5-|
D|3-3-3-3-3-3-3-3-|3-3-3-3-3-3-3-3-|3-3-3-3-3-3-3-3-|3-3-3-3-5-5-5-5-|
A|1-1-1-1-1-1-1-1-|1-1-1-1-1-1-1-1-|3-3-3-3-3-3-3-3-|3-3-3-3-3-3-3-3-|
E|----------------|----------------|1-1-1-1-1-1-1-1-|1-1-1-1---------|

G1
e|-----------------------|-----------------------|-----------------------|-----------------------|
B|-----------------------|-----------------------|-----------------------|-----------------------|
G|10-10-10-10-10-10-10-10|10-10-10-10-10-10-10-10|10-10-10-10-10-10-10-10|10-10-10-10-10-10-10-10|
D|-----------------------|-----------------------|-----------------------|-----------------------|
A|8--8--8--8--8--8--8--8-|8--8--8--8--8--8--8--8-|8--8--8--8--8--8--8--8-|8--8--8--8--8--8--8--8-|
E|-----------------------|-----------------------|-----------------------|-----------------------|

G2
e|----------------|----------------|----------------|----------------|
B|----------------|----------------|----------------|----------------|
G|3-3-3-3-3-3-3-3-|3-3-3-3-3-3-3-3-|----------------|----------------|
D|3-3-3-3-3-3-3-3-|3-3-3-3-3-3-3-3-|3-3-3-3-3-3-3-3-|3-3-3-3-2-2-2-2-|
A|1-1-1-1-1-1-1-1-|1-1-1-1-1-1-1-1-|3-3-3-3-3-3-3-3-|3-3-3-3-2-2-2-2-|
E|----------------|----------------|1-1-1-1-1-1-1-1-|1-1-1-1-0-0-0-0-|

e|-----------------------|-----------------------|-----------------------|----------------|
B|-----------------------|-----------------------|-----------------------|----------------|
G|10-10-10-10-10-10-10-10|10-10-10-10-10-10-10-10|10-10-10-10-10-10-10-10|9-9-9-9-9-9-9-9-|
D|-----------------------|-----------------------|-----------------------|----------------|
A|8--8--8--8--8--8--8--8-|8--8--8--8--8--8--8--8-|8--8--8--8--8--8--8--8-|7-7-7-7-7-7-7-7-|
E|-----------------------|-----------------------|-----------------------|----------------|

e|----------------|----------------|----------------|----------------|
B|----------------|----------------|----------------|----------------|
G|3-3-3-3-3-3-3-3-|3-3-3-3-3-3-3-3-|----------------|--------5-5-5-5-|
D|3-3-3-3-3-3-3-3-|3-3-3-3-3-3-3-3-|3-3-3-3-3-3-3-3-|3-3-3-3-5-5-5-5-|
A|1-1-1-1-1-1-1-1-|1-1-1-1-1-1-1-1-|3-3-3-3-3-3-3-3-|3-3-3-3-3-3-3-3-|
E|----------------|----------------|1-1-1-1-1-1-1-1-|1-1-1-1---------|


[Bridge]

e|-----------------------|-----------------------|-----------------------|-----------------------|
B|-----------------------|-----------------------|-----------------------|-----------------------|
G|10-10-10-10-10-10-10-10|10-12-12-12-12-12-12-12|12-14-14-14-14-14-14-14|14-14-14-14-14-14-14-14|
D|-----------------------|-----------------------|-----------------------|-----------------------|
A|8--8--8--8--8--8--8--8-|8--10-10-10-10-10-10-10|10-12-12-12-12-12-12-12|12-12-12-12-12-12-12-12|
E|-----------------------|-----------------------|-----------------------|-----------------------|


e|----------------|----------------|----------------|----------------|
B|----------------|----------------|----------------|----------------|
G|3-3-3-3-3-3-3-3-|----------------|7-7-7-7-7-7-7-7-|----------------|
D|3-3-3-3-3-3-3-3-|5-5-5-5-5-5-5-5-|7-7-7-7-7-7-7-7-|3-3-3-3-3-3-3-3-|
A|1-1-1-1-1-1-1-1-|5-5-5-5-5-5-5-5-|5-5-5-5-5-5-5-5-|3-3-3-3-3-3-3-3-|
E|----------------|3-3-3-3-3-3-3-3-|----------------|1-1-1-1-1-1-1-1-|

e|-----------------------|-----------------------|-----------------------|-----------------------|
B|-----------------------|-----------------------|-----------------------|-----------------------|
G|10-10-10-10-10-10-10-10|10-12-12-12-12-12-12-12|12-14-14-14-14-14-14-14|14-14-14-14-14-14-14-14|
D|-----------------------|-----------------------|-----------------------|-----------------------|
A|8--8--8--8--8--8--8--8-|8--10-10-10-10-10-10-10|10-12-12-12-12-12-12-12|12-12-12-12-12-12-12-12|
E|-----------------------|-----------------------|-----------------------|-----------------------|

e|----------------|----------------|----------------|----------------|
B|----------------|----------------|----------------|----------------|
G|3-3-3-3-3-3-3-3-|----------------|7-7-7-7-7-7-7-7-|----------------|
D|3-3-3-3-3-3-3-3-|5-5-5-5-5-5-5-5-|7-7-7-7-7-7-7-7-|3-3-3-3-3-3-3-3-|
A|1-1-1-1-1-1-1-1-|5-5-5-5-5-5-5-5-|5-5-5-5-5-5-5-5-|3-3-3-3-3-3-3-3-|
E|----------------|3-3-3-3-3-3-3-3-|----------------|1-1-1-1-1-1-1-1-|

e|-----------------------|-----------------------|----------------|-----------------------|
B|-----------------------|-----------------------|----------------|-----------------------|
G|10-10-10-10-10-10-10-10|10-12-12-12-12-12-12-12|7-7-7-7-7-7-7-7-|14-14-14-14-14-14-14-14|
D|-----------------------|-----------------------|----------------|-----------------------|
A|8--8--8--8--8--8--8--8-|8--10-10-10-10-10-10-10|5-5-5-5-5-5-5-5-|12-12-12-12-12-12-12-12|
E|-----------------------|-----------------------|----------------|-----------------------|

|----------------|----------------|----------------|----------------|
|----------------|----------------|----------------|----------------|
|3-3-3-3-3-3-3-3-|----------------|7-7-7-7-7-7-7-7-|----------------|
|3-3-3-3-3-3-3-3-|5-5-5-5-5-5-5-5-|7-7-7-7-7-7-7-7-|3-3-3-3-3-3-3-3-|
|1-1-1-1-1-1-1-1-|5-5-5-5-5-5-5-5-|5-5-5-5-5-5-5-5-|3-3-3-3-3-3-3-3-|
|----------------|3-3-3-3-3-3-3-3-|----------------|1-1-1-1-1-1-1-1-|

e|-----------------------|-----------------------|----------------|----------------|
B|-----------------------|-----------------------|----------------|----------------|
G|10-10-10-10-10-10-10-10|10-12-12-12-12-12-12-12|7-7-7-7-7-7-7-7-|7-7-7-7-7-7-7-7-|
D|-----------------------|-----------------------|----------------|----------------|
A|8--8--8--8--8--8--8--8-|8--10-10-10-10-10-10-10|5-5-5-5-5-5-5-5-|5-5-5-5-5-5-5-5-|
E|-----------------------|-----------------------|----------------|----------------|

e|----------------|----------------|----------------|----------------|
B|----------------|----------------|----------------|----------------|
G|3-3-3-3-3-3-3-3-|----------------|7-7-7-7-7-7-7-7-|7-7-7-7-7-7-7-7-|
D|3-3-3-3-3-3-3-3-|5-5-5-5-5-5-5-5-|7-7-7-7-7-7-7-7-|7-7-7-7-7-7-7-7-|
A|1-1-1-1-1-1-1-1-|5-5-5-5-5-5-5-5-|5-5-5-5-5-5-5-5-|5-5-5-5-5-5-5-5-|
E|----------------|3-3-3-3-3-3-3-3-|----------------|----------------|


[Chorus]

 G1 & G2
e|----------------|----------------|----------------|----------------|
B|----------------|----------------|----------------|----------------|
G|3-3-3-3-3-3-3-3-|3-3-3-3-3-3-3-3-|----------------|----------------|
D|3-3-3-3-3-3-3-3-|3-3-3-3-3-3-3-3-|3-3-3-3-3-3-3-3-|3-3-3-3-2-2-2-2-|
A|1-1-1-1-1-1-1-1-|1-1-1-1-1-1-1-1-|3-3-3-3-3-3-3-3-|3-3-3-3-2-2-2-2-|
E|----------------|----------------|1-1-1-1-1-1-1-1-|1-1-1-1-0-0-0-0-|

e|----------------|----------------|----------------|----------------|
B|----------------|----------------|----------------|----------------|
G|3-3-3-3-3-3-3-3-|3-3-3-3-3-3-3-3-|----------------|--------5-5-5-5-|
D|3-3-3-3-3-3-3-3-|3-3-3-3-3-3-3-3-|3-3-3-3-3-3-3-3-|3-3-3-3-5-5-5-5-|
A|1-1-1-1-1-1-1-1-|1-1-1-1-1-1-1-1-|3-3-3-3-3-3-3-3-|3-3-3-3-3-3-3-3-|
E|----------------|----------------|1-1-1-1-1-1-1-1-|1-1-1-1---------|

G1
|-----------------------|-----------------------|-----------------------|-----------------------|
|-----------------------|-----------------------|-----------------------|-----------------------|
|10-10-10-10-10-10-10-10|10-10-10-10-10-10-10-10|10-10-10-10-10-10-10-10|10-10-10-10-10-10-10-10|
|-----------------------|-----------------------|-----------------------|-----------------------|
|8--8--8--8--8--8--8--8-|8--8--8--8--8--8--8--8-|8--8--8--8--8--8--8--8-|8--8--8--8--8--8--8--8-|
|-----------------------|-----------------------|-----------------------|-----------------------|

G2
|----------------|----------------|----------------|----------------|
|----------------|----------------|----------------|----------------|
|3-3-3-3-3-3-3-3-|3-3-3-3-3-3-3-3-|----------------|----------------|
|3-3-3-3-3-3-3-3-|3-3-3-3-3-3-3-3-|3-3-3-3-3-3-3-3-|3-3-3-3-2-2-2-2-|
|1-1-1-1-1-1-1-1-|1-1-1-1-1-1-1-1-|3-3-3-3-3-3-3-3-|3-3-3-3-2-2-2-2-|
|----------------|----------------|1-1-1-1-1-1-1-1-|1-1-1-1-0-0-0-0-|

e|-----------------------|-----------------------|-----------------------|----------------|
B|-----------------------|-----------------------|-----------------------|----------------|
G|10-10-10-10-10-10-10-10|10-10-10-10-10-10-10-10|10-10-10-10-10-10-10-10|9-9-9-9-9-9-9-9-|
D|-----------------------|-----------------------|-----------------------|----------------|
A|8--8--8--8--8--8--8--8-|8--8--8--8--8--8--8--8-|8--8--8--8--8--8--8--8-|7-7-7-7-7-7-7-7-|
E|-----------------------|-----------------------|-----------------------|----------------|

|----------------|----------------|----------------|----------------|
|----------------|----------------|----------------|----------------|
|3-3-3-3-3-3-3-3-|3-3-3-3-3-3-3-3-|----------------|--------5-5-5-5-|
|3-3-3-3-3-3-3-3-|3-3-3-3-3-3-3-3-|3-3-3-3-3-3-3-3-|3-3-3-3-5-5-5-5-|
|1-1-1-1-1-1-1-1-|1-1-1-1-1-1-1-1-|3-3-3-3-3-3-3-3-|3-3-3-3-3-3-3-3-|
|----------------|----------------|1-1-1-1-1-1-1-1-|1-1-1-1---------|


[Break]

e|----------------|----------------|----5-5-8-8-----|5---5---5-------|
B|----3-3-6-6-----|3-3-------------|6-6---------6-6-|--8---8---8-6-5-|
G|3-3---------3-3-|----5-5-3-3-2-2-|----------------|----------------|
D|----------------|----------------|----------------|----------------|
A|----------------|----------------|----------------|----------------|
E|----------------|----------------|----------------|----------------|

e|----------------|----------------|----------------|----------------|
B|----------------|----------------|----------------|----------------|
G|7-7-7-7-7-7-7-7-|3-3-3-3-3-3-3-3-|----------------|----------------|
D|7-7-7-7-7-7-7-7-|3-3-3-3-3-3-3-3-|3-3-3-3-3-3-3-3-|3-3-3-3-2-2-2-2-|
A|5-5-5-5-5-5-5-5-|1-1-1-1-1-1-1-1-|3-3-3-3-3-3-3-3-|3-3-3-3-2-2-2-2-|
E|----------------|----------------|1-1-1-1-1-1-1-1-|1-1-1-1-0-0-0-0-|

e|----------------|----------------|----5-5-8-8-----|5---5---5-------|
B|----3-3-6-6-----|3-3-------------|6-6---------6-6-|--8---8---8-6-5/|
G|3-3---------3-3-|----5-5-3-3-2-2-|----------------|----------------|
D|----------------|----------------|----------------|----------------|
A|----------------|----------------|----------------|----------------|
E|----------------|----------------|----------------|----------------|

e|----------------|----------------|----------------|----------------|
B|----------------|----------------|----------------|----------------|
G|7-7-7-7-7-7-7-7-|3-3-3-3-3-3-3-3-|----------------|--------5-5-5-5-|
D|7-7-7-7-7-7-7-7-|3-3-3-3-3-3-3-3-|3-3-3-3-3-3-3-3-|3-3-3-3-5-5-5-5-|
A|5-5-5-5-5-5-5-5-|1-1-1-1-1-1-1-1-|3-3-3-3-3-3-3-3-|3-3-3-3-3-3-3-3-|
E|----------------|----------------|1-1-1-1-1-1-1-1-|1-1-1-1---------|


[End]

e|7b8~------------|
B|----------------|
G|----------------|
D|----------------|
A|----------------|
E|----------------|

e|----------------|
B|----------------|
G|7---------------|
D|7---------------|
A|5---------------|
E|----------------|            
Submit corrections


        I Am The Nightmare  lessons Hard to play? Try these video lessons and learn fast I Am The Nightmare  lessons
        
↑ Back to top | Tablatures and chords for acoustic guitar and electric guitar, ukulele, drums are parodies/interpretations of the original songs. You may use it for private study, scholarship, research or language learning purposes only