» » »

Brand New - Good To Know If I Ever Need Attention Tabs

Artists:  A B C D E F G H I J K L M N O P Q R S T U V W X Y Z # 

Good To Know If I Ever Need Attention Tabs

(ver. 1) Click to play this song!
Brand New
 Rating:
4/5 (4 votes)

 Good To Know If I Ever Need Attention lessons Tabs too difficult? Try these video lessons and learn fast
 
                Brand New - Good To Know If I Ever Need Attention All I Have To Do Is Die

Intro x2                 During the intro and verses, Guitar 2 is repeated 
Verse x4                 quietly in the background.  It cycles 8 times for 
Chorus x2                every time Guitar 1 plays its part. The 4th part  
Verse x4                 of the verse, Guitar 1 switches from playing the 
Chorus x2                chords to playing the intro once more.  I tabbed
Bridge x2                out the timing as well as i could for Guitar 2 in
Ending x2                the 'bridge' part, but listen to the song and you 
Break                    can figure it out. The break is just both guitars
Chorus x4                showing off some flashy effects.  Guitar 2 uses 
Pause                    these effects during the 'ending' part and its too
Bridge x2                hard to figure out so i left it.
Ending x2

Don't forget to drop your guitar 1/2 step.

Intro
Guitar 1
|---------------------------------------------------------------------------|
|-----------------------12--10~-----------8~--------------------------------|
|---9--------9-----------------------7h9--------7h9-------------------------|
|------9~-------9/7~--------------------------------------------------------|
|-----------------------------------------------------10~-------------------|
|---------------------------------------------------------------------------|
Guitar 2   
|---------------------------------------------------------------------------|
|-------------------0-------------------------------------------------------|
|-------------2-------------------------------------------------------------|
|----------2-----2----------------------------------------------------------|
|---0-----------------------------------------------------------------------|
|---------------------------------------------------------------------------|


Verse
Guitar 1
|------12~--------12~--------15~--------12~-----10~-------------------------|
|------13~--------13~--------13~--------13~-----13~-------------------------|
|------12~-------------------12~--------12~-----12~-------------------------|
|---------------------------------------------------------------------------|
|---------------------------------------------------------------------------|
|---------------------------------------------------------------------------|
Guitar 2
|---------------------------------------------------------------------------|
|-------------------0-------------------------------------------------------|
|-------------2-------------------------------------------------------------|
|----------2-----2----------------------------------------------------------|
|---0-----------------------------------------------------------------------|
|---------------------------------------------------------------------------|


Chorus
Guitars 1 & 2
|---------------------------------------------------------------------------|
|---------------------------------------------------------------------------|
|---5-5-5-5-5-5-5-5---4-4-4-4-4-4-4-4---2-2-2-2-2-2-2-2---------------------|
|---5-5-5-5-5-5-5-5---4-4-4-4-4-4-4-4---2-2-2-2-2-2-2-2---5-5-5-5-5-5-5-5---|
|---3-3-3-3-3-3-3-3---2-2-2-2-2-2-2-2---0-0-0-0-0-0-0-0---5-5-5-5-5-5-5-5---|
|---------------------------------------------------------3-3-3-3-3-3-3-3---|

|---------------------------------------------------------------------------|
|---------------------------------------------------------------------------|
|---------------------------------------------------------------------------|
|---3-3-3-3-3-3-3-3---2-2-2-2-2-2-2-2---5-5-5-5-5-5-5-5---3-3-3-3-3-3-3-3---|
|---3-3-3-3-3-3-3-3---2-2-2-2-2-2-2-2---5-5-5-5-5-5-5-5---3-3-3-3-3-3-3-3---|
|---1-1-1-1-1-1-1-1---0-0-0-0-0-0-0-0---3-3-3-3-3-3-3-3---1-1-1-1-1-1-1-1---|



Bridge
Guitar 1
|---15-----------------15-----------------15--------------------------------|
|-------17-----------------17-----------------17----------------------------|
|-----------17-----------------17-----------------17------------------------|
|---------------17-----------------17---------------------------------------|
|---------------------------------------------------------------------------|
|---------------------------------------------------------------------------|
Guitar 2
|---------------------------------------------------------------------------|
|---------------------------------------------------------------------------|
|---9---9-----9---9---9---9-----9---9-----9---9---9---9---------------------|
|---9---9-----9---9---9---9-----9---9-----9---9---9---9---------------------|
|---7---7-----7---7---7---7-----7---7-----7---7---7---7---------------------|
|---7---7-----7---7---7---7-----7---7-----7---7---7---7---------------------|

Guitar 1
|---12-----------------12-----------------12--------------------------------|
|-------13-----------------13-----------------13----------------------------|
|-----------14-----------------14-----------------14------------------------|
|---------------14-----------------14-----------------14--------------------|
|---------------------------------------------------------------------------|
|---------------------------------------------------------------------------|
Guitar 2
|---------------------------------------------------------------------------|
|---------------------------------------------------------------------------|
|---8---8---8------8------8--8--8--8--8--8-----8-----8----------------------|
|---8---8---8------8------8--8--8--8--8--8-----8-----8----------------------|
|---6---6---6------6------6--6--6--6--6--6-----6-----6----------------------|
|---6---6---6------6------6--6--6--6--6--6-----6-----6----------------------|

Guitar 1
|---15-----------------15-----------------15--------------------------------|
|-------17-----------------17-----------------17----------------------------|
|-----------17-----------------17-----------------17------------------------|
|---------------17-----------------17---------------------------------------|
|---------------------------------------------------------------------------|
|---------------------------------------------------------------------------|
Guitar 2
|---------------------------------------------------------------------------|
|---------------------------------------------------------------------------|
|---7---7-----7---7---7---7-----7---7-----7---7---7---7---------------------|
|---7---7-----7---7---7---7-----7---7-----7---7---7---7---------------------|
|---5---5-----5---5---5---5-----5---5-----5---5---5---5---------------------|
|---5---5-----5---5---5---5-----5---5-----5---5---5---5---------------------|

Guitar 1
|---12-----------------12-----------------12--------------------------------|
|-------13-----------------13-----------------13----------------------------|
|-----------14-----------------14-----------------14------------------------|
|---------------14-----------------14-----------------14--------------------|
|---------------------------------------------------------------------------|
|---------------------------------------------------------------------------|
Guitar 2
|---------------------------------------------------------------------------|
|---------------------------------------------------------------------------|
|---6---6-----6---6---6---6-------6---6---6------6----6---------------------|
|---6---6-----6---6---6---6-------6---6---6------6----6---------------------|
|---4---4-----4---4---4---4-------4---4---4------4----4---------------------|
|---4---4-----4---4---4---4-------4---4---4------4----4---------------------|


Ending
Guitar 1
|---12--------12--------12-------12--------12-------------------------------|
|------13--------13--------13--------13--------13---------------------------|
|---------14--------14--------14--------14--------14------------------------|
|---------------------------------------------------------------------------|
|---------------------------------------------------------------------------|
|---------------------------------------------------------------------------|

|---10--------10--------10--------10--------10------------------------------|
|------12--------12--------12--------12--------12---------------------------|
|---------12--------12--------12--------12--------12------------------------|
|---------------------------------------------------------------------------|
|---------------------------------------------------------------------------|
|---------------------------------------------------------------------------|

|---8-----8-----8-----8-----8-----------------------------------------------|
|-----8-----8-----8-----8-----8-------------------------------------9---9---|
|------------------------------------------8---10----------8---10-----------|
|---------------------------------8---10--------------10--------------------|
|---------------------------------------------------------------------------|
|---------------------------------------------------------------------------|


Brand New is so sweet. What a fun song.  
 or talk to me on IM     redakk
            
Submit corrections


        Good To Know If I Ever Need Attention lessons Hard to play? Try these video lessons and learn fast Good To Know If I Ever Need Attention lessons
        
↑ Back to top | Tablatures and chords for acoustic guitar and electric guitar, ukulele, drums are parodies/interpretations of the original songs. You may use it for private study, scholarship, research or language learning purposes only