» » »

Brand New - Coca-cola Tabs

Artists:  A B C D E F G H I J K L M N O P Q R S T U V W X Y Z # 

Coca-cola Tabs

(ver. 1) Click to play this song!
Brand New
 Rating:
4.7/5 (15 votes)

 Coca-cola lessons Tabs too difficult? Try these video lessons and learn fast
 
                -------------------------------------------------------------------------------
-------------------------------------------------------------------------------

I originally hated this song as I favored the demo it is based on.
However, I have grown to appreciate this version more as its lyrics
are much heavier and personal rather than the cheap sentimentality of
the demo. I doubt many will come to the same conclusion but that's 
how music works. 

Tuning: Standard (EADGBe)

INTRO
e|---------------------------------------------------------------------------|
B|---------------------------------------------------------------------------|
G|---------------------------------------------[x2]--------------------------|
D|-10--10-9---9----------------------7---------------------------------------|
A|-10--10-10--10-(let ring)--8--8-7--7-/-5-5---------------------------------|
E|-8---8--8---0--------------5--5-5--5-/-3-3---------------------------------|


VERSE "Blood and feathers.."
e|---------------------------------------------------------------------------|
B|---------------------------------------------------------------------------|
G|---------------------------------------------[x2]--------------------------|
D|-10--10-9---9----------------------7---------------------------------------|
A|-10--10-10--10-(let ring)--8--8-7--7-/-5-5---------------------------------|
E|-8---8--8---0--------------5--5-5--5-/-3-3---------------------------------|

"You seep in the windows, again.."
e|---------------------------------------------------------------------------|
B|---------------------------------------------------------------------------|
G|---------------------------------------------------------------------------|
D|----------------------------------------------------[x3]-------------------|
A|-3--3--3--3--3--3--3--3/7--7--7--7--5--5--5--5-----------------------------|
E|-1--1--1--1--1--1--1--1/5--5--5--5--3--3--3--3-----------------------------|

"My joints are frozen, cold, and old.."
e|---------------------------------------------------------------------------|
B|---------------------------------------------------------------------------|
G|---------------------------------------------------------------------------|
D|---------------------------------------------------------------------------|
A|-3--3--3--3--3--3--3--3/5--------5--------5--------------------------------|
E|-1--1--1--1--1--1--1--1/3--3--3--3--3--3--3--------------------------------|


CHORUS "If it's by air.."
e|---------------------------------------------------------------------------|
B|---------------------------------------------------------------------------|
G|---------------------------------------------------------[x2]--------------|
D|---------------------------------------------------------------------------|
A|-10-10-10-10-10-10-10-10-/-7--7--7--7-/-5--5--5--5-------------------------|
E|-8--8--8--8--8--8--8--8--/-5--5--5--5-/-3--3--3--3-------------------------|

The noise in the background here can be recreated by holding a note at the
9th fret on the G string. Also the higher pitched noises later on can be 
recreated using a glass slide placed ALL THE WAY up the strings (like over
the pickups even) and slowly moving it down. I'm pretty sure most of the 
noises are just synth pads but its fun to attempt them.

"..again. You work late to fight off your pulse.."
e|---------------------------------------------------------------------------|
B|---------------------------------------------------------------------------|
G|---------------------------------------------------------------------------|
D|----------------------------------------------------[x2]-------------------|
A|-3--3--3--3--3--3--3--3/7--7--7--7--5--5--5--5-----------------------------|
E|-1--1--1--1--1--1--1--1/5--5--5--5--3--3--3--3-----------------------------|


VERSE "They worked out.."
e|---------------------------------------------------------------------------|
B|---------------------------------------------------------------------------|
G|---------------------------------------------[x2]--------------------------|
D|-10--10-9---9----------------------7---------------------------------------|
A|-10--10-10--10-(let ring)--8--8-7--7-/-5-5---------------------------------|
E|-8---8--8---0--------------5--5-5--5-/-3-3---------------------------------|

"You work out in receptions here.."
e|---------------------------------------------------------------------------|
B|---------------------------------------------------------------------------|
G|---------------------------------------------------------------------------|
D|----------------------------------------------------[x3]-------------------|
A|-3--3--3--3--3--3--3--3/7--7--7--7--5--5--5--5-----------------------------|
E|-1--1--1--1--1--1--1--1/5--5--5--5--3--3--3--3-----------------------------|

"I'll give you my name.."
e|---------------------------------------------------------------------------|
B|---------------------------------------------------------------------------|
G|---------------------------------------------------------------------------|
D|---------------------------------------------------------------------------|
A|-3--3--3--3--3--3--3--3/5--------5--5--5--5--------------------------------|
E|-1--1--1--1--1--1--1--1/3--3--3--3--3--3--3--------------------------------|


CHORUS "If it's by sea.."
e|---------------------------------------------------------------------------|
B|---------------------------------------------------------------------------|
G|---------------------------------------------------------[x2]--------------|
D|---------------------------------------------------------------------------|
A|-10-10-10-10-10-10-10-10-/-7--7--7--7-/-5--5--5--5-------------------------|
E|-8--8--8--8--8--8--8--8--/-5--5--5--5-/-3--3--3--3-------------------------|

"..again. Bless your beautiful hide.."
e|---------------------------------------------------------------------------|
B|---------------------------------------------------------------------------|
G|---------------------------------------------------------------------------|
D|----------------------------------------------------[x2]-------------------|
A|-3--3--3--3--3--3--3--3/7--7--7--7--5--5--5--5-----------------------------|
E|-1--1--1--1--1--1--1--1/5--5--5--5--3--3--3--3-----------------------------|

"If it's by air.."
e|---------------------------------------------------------------------------|
B|---------------------------------------------------------------------------|
G|---------------------------------------------------------[x2]--------------|
D|---------------------------------------------------------------------------|
A|-10-10-10-10-10-10-10-10-/-7--7--7--7-/-5--5--5--5-------------------------|
E|-8--8--8--8--8--8--8--8--/-5--5--5--5-/-3--3--3--3-------------------------|

"..again. You work late.."
e|---------------------------------------------------------------------------|
B|---------------------------------------------------------------------------|
G|---------------------------------------------------------------------------|
D|----------------------------------------------------[x2]-------------------|
A|-3--3--3--3--3--3--3--3/7--7--7--7--5--5--5--5-----------------------------|
E|-1--1--1--1--1--1--1--1/5--5--5--5--3--3--3--3-----------------------------|


[Guitar 2] Use a slide. These parts come in at separate times,
           thus the separation into different sections. Also the note
           that you slide up from is between the 13th and 14th frets.
           So you have to feel it out.
e|---------|-----------|-----------------------------------------------------|
B|---------|--17-17-17-|--(14)/17----17\(14)----(14)/17----------------------|
G|--9-9-9~-|-----------|-----------------------------------------------------|
D|---------|-----------|-----------------------------------------------------|
A|---------|-----------|-----------------------------------------------------|
E|---------|-----------|-----------------------------------------------------|



| /  slide up
| \  slide down
| ~  vibrato
===============================================================================
            
Submit corrections


        Coca-cola lessons Hard to play? Try these video lessons and learn fast Coca-cola lessons
        
↑ Back to top | Tablatures and chords for acoustic guitar and electric guitar, ukulele, drums are parodies/interpretations of the original songs. You may use it for private study, scholarship, research or language learning purposes only