» » »

Brand New - Car Tabs

Artists:  A B C D E F G H I J K L M N O P Q R S T U V W X Y Z # 

Car Tabs

(ver. 1) Click to play this song!
Brand New
 Rating:
4/5 (4 votes)

 Car lessons Tabs too difficult? Try these video lessons and learn fast
 
                Tuning: Standard (Capo 1st Fret)

   D  D  D  U  D  D  D  U  D  D  D  D  D  D  D  U
e|--------------------------------------------------------------------|
B|-2--2--2--2---------------------------------------------------------|
G|-2--2--2--2--1--1--1--1--2--2--2--2--2--2--2--2---------------------|
D|-2--2--2--2--2--2--2--2--4--4--4--4--4--4--4--4---------------------|
A|-0--0--0--0--2--2--2--2--4--4--4--4--4--4--4--4---------------------|
E|-------------0--0--0--0--2--2--2--2--2--2--2--2---------------------|
      You get the car, I'll get the night off and you'll get the chance to
   D  D  D  U  D  D  D  U  D  D  D  D  D  D  D  U
e|-2--2--2--2---------------------------------------------------------|
B|-3--3--3--3--2--2--2--2---------------------------------------------|
G|-2--2--2--2--2--2--2--2--1--1--1--1--1--1--1--1---------------------|
D|-------------2--2--2--2--2--2--2--2--2--2--2--2---------------------|
A|-------------0--0--0--0--2--2--2--2--2--2--2--2---------------------|
E|-------------------------0--0--0--0--0--0--0--0---------------------|
      take the world apart and figure out how it works
   D  D  D  U  D  D  D  U  D  D  D  D  D  D  D  U
e|--------------------------------------------------------------------|
B|-3--3--3--3---------------------------------------------------------|
G|-4--4--4--4--1--1--1--1--2--2--2--2--2--2--2--2---------------------|
D|-4--4--4--4--2--2--2--2--4--4--4--4--4--4--4--4---------------------|
A|-2--2--2--2--2--2--2--2--4--4--4--4--4--4--4--4---------------------|
E|-------------0--0--0--0--2--2--2--2--2--2--2--2---------------------|
      Don't let me know what you find out
   D  D  D  U  D  D  D  U  D  D  D  U  D  D  D  U
e|--------------------------------------------------------------------|
B|-2--2--2--2---------------------------------------------------------|
G|-2--2--2--2--1--1--1--1--2--2--2--2--2--2--2--2---------------------|
D|-2--2--2--2--2--2--2--2--4--4--4--4--4--4--4--4---------------------|
A|-0--0--0--0--2--2--2--2--4--4--4--4--4--4--4--4---------------------|
E|-------------0--0--0--0--2--2--2--2--2--2--2--2---------------------|
      I need a car, you need a guide who needs a map
   D  D  D  U  D  D  D  U  D  D  D  D  D  D  D  U
e|-2--2--2--2---------------------------------------------------------|
B|-3--3--3--3--2--2--2--2---------------------------------------------|
G|-2--2--2--2--2--2--2--2--1--1--1--1--1--1--1--1---------------------|
D|-------------2--2--2--2--2--2--2--2--2--2--2--2---------------------|
A|-------------0--0--0--0--2--2--2--2--2--2--2--2---------------------|
E|-------------------------0--0--0--0--0--0--0--0---------------------|
      If I don't die or worse, I'm gonna need a nap
   D  D  D  U  D  D  D  U  D  D  D  D  D  D  D  U
e|--------------------------------------------------------------------|
B|-3--3--3--3---------------------------------------------------------|
G|-4--4--4--4--1--1--1--1--2--2--2--2--2--2--2--2---------------------|
D|-4--4--4--4--2--2--2--2--4--4--4--4--4--4--4--4---------------------|
A|-2--2--2--2--2--2--2--2--4--4--4--4--4--4--4--4---------------------|
E|-------------0--0--0--0--2--2--2--2--2--2--2--2---------------------|
      At best I'll be asleep when you get back
   D  D  D  U  D  D  D  U  D  D  D  U  D  U  D  U  D  U  D  U
e|-------------------------------------2--2--2--2--2--2--2--2---------|
B|-2--2--2--2--------------------------3--3--3--3--3--3--3--3---------|
G|-2--2--2--2--1--1--1--1--2--2--2--2--2--2--2--2--2--2--2--2---------|
D|-2--2--2--2--2--2--2--2--4--4--4--4---------------------------------| 
A|-0--0--0--0--2--2--2--2--4--4--4--4---------------------------------|
E|-------------0--0--0--0--2--2--2--2---------------------------------|
      I wanna see it when you find out what comets, stars and moons are all
   D  D  D  U  D  D  D  U  D  D  D  U  D  U  D  U  D  U  D  U
e|-------------------------------------2--2--2--2--2--2--2--2---------|
B|-2--2--2--2--------------------------3--3--3--3--3--3--3--3---------|
G|-2--2--2--2--1--1--1--1--2--2--2--2--2--2--2--2--2--2--2--2---------|
D|-2--2--2--2--2--2--2--2--4--4--4--4---------------------------------|
A|-0--0--0--0--2--2--2--2--4--4--4--4---------------------------------|
E|-------------0--0--0--0--2--2--2--2---------------------------------|
      about, I wanna see their faces turn to the backs of their heads and slowly get smaller
   D  D  D  U  D  D  D  U  D  D  D  U  D  U  D  U  D  U
e|-------------------------------------2--2--2--2--2--2---------------|\
B|-2--2--2--2--------------------------3--3--3--3--3--3---------------| \
G|-2--2--2--2--1--1--1--1--2--2--2--2--2--2--2--2--2--2---------------|  \ Two
D|-2--2--2--2--2--2--2--2--4--4--4--4---------------------------------|  / Times
A|-0--0--0--0--2--2--2--2--4--4--4--4---------------------------------| /
E|-------------0--0--0--0--2--2--2--2---------------------------------|/
      I wanna see it now 
   D  D  U  D  D  U  D  U  D  U  D       D  D  U
e|----------------------------------|  |------------------------------|
B|----------2--2--2-----------------|  |------------------------------|
G|-2--2--2--2--2--2--1--1--1--1--1--|  |-2--2--2----------------------|
D|-4--4--4--2--2--2--2--2--2--2--2--|x4|-4--4--4----------------------|
A|-4--4--4--0--0--0--2--2--2--2--2--|  |-4--4--4----------------------|
E|-2--2--2-----------0--0--0--0--0--|  |-2--2--2----------------------|

   D  D  D  U  D  D  D  U  D  D  D  D  D  D  D  U
e|--------------------------------------------------------------------|
B|-2--2--2--2---------------------------------------------------------|
G|-2--2--2--2--1--1--1--1--2--2--2--2--2--2--2--2---------------------|
D|-2--2--2--2--2--2--2--2--4--4--4--4--4--4--4--4---------------------|
A|-0--0--0--0--2--2--2--2--4--4--4--4--4--4--4--4---------------------|
E|-------------0--0--0--0--2--2--2--2--2--2--2--2---------------------|
      I want specifics on the general idea
   D  D  D  U  D  D  D  U  D  D  D  D  D  D  D  U
e|-2--2--2--2---------------------------------------------------------|
B|-3--3--3--3--2--2--2--2---------------------------------------------|
G|-2--2--2--2--2--2--2--2--1--1--1--1--1--1--1--1---------------------|
D|-------------2--2--2--2--2--2--2--2--2--2--2--2---------------------|
A|-------------0--0--0--0--2--2--2--2--2--2--2--2---------------------|
E|-------------------------0--0--0--0--0--0--0--0---------------------|
      I wanna think what I should know
   D  D  D  U  D  D  D  U  D  D  D  D  D  D  D  U
e|--------------------------------------------------------------------|
B|-3--3--3--3---------------------------------------------------------|
G|-4--4--4--4--1--1--1--1--2--2--2--2--2--2--2--2---------------------|
D|-4--4--4--4--2--2--2--2--4--4--4--4--4--4--4--4---------------------|
A|-2--2--2--2--2--2--2--2--4--4--4--4--4--4--4--4---------------------|
E|-------------0--0--0--0--2--2--2--2--2--2--2--2---------------------|
      I want you to do me what to show
   D  D  D  U  D  D  D  U  D  D  D  U  D  U  D  U  D  U  D  U
e|-------------------------------------2--2--2--2--2--2--2--2---------|\
B|-2--2--2--2--------------------------3--3--3--3--3--3--3--3---------| \
G|-2--2--2--2--1--1--1--1--2--2--2--2--2--2--2--2--2--2--2--2---------|  \ Four
D|-2--2--2--2--2--2--2--2--4--4--4--4---------------------------------|  / times
A|-0--0--0--0--2--2--2--2--4--4--4--4---------------------------------| /
E|-------------0--0--0--0--2--2--2--2---------------------------------|/
      I wanna see movies of my dreams                                     
   D  D  D  U  D  D  D  U  D  D  D  U  D  U  D  U  D  U  D  U
e|-------------------------------------2--2--2--2--2--2--2--2---------|
B|-2--2--2--2--------------------------3--3--3--3--3--3--3--3---------|
G|-2--2--2--2--1--1--1--1--2--2--2--2--2--2--2--2--2--2--2--2---------|
D|-2--2--2--2--2--2--2--2--4--4--4--4---------------------------------|
A|-0--0--0--0--2--2--2--2--4--4--4--4---------------------------------|
E|-------------0--0--0--0--2--2--2--2---------------------------------|
      I wanna see it when you get stoned on a cloudy breezy desert afternoon
   D  D  D  U  D  D  D  U  D  D  D  U  D  U  D  U  D  U  D  U
e|-------------------------------------2--2--2--2--2--2--2--2---------|
B|-2--2--2--2--------------------------3--3--3--3--3--3--3--3---------|
G|-2--2--2--2--1--1--1--1--2--2--2--2--2--2--2--2--2--2--2--2---------|
D|-2--2--2--2--2--2--2--2--4--4--4--4---------------------------------|
A|-0--0--0--0--2--2--2--2--4--4--4--4---------------------------------|
E|-------------0--0--0--0--2--2--2--2---------------------------------|
      I wanna see it untame itself and break its owner
   D  D  D  U  D  D  D  U  D  D  D  U  D  U  D  U  D  U
e|-------------------------------------2--2--2--2--2--2---------------|\
B|-2--2--2--2--------------------------3--3--3--3--3--3---------------| \
G|-2--2--2--2--1--1--1--1--2--2--2--2--2--2--2--2--2--2---------------|  \ Two
D|-2--2--2--2--2--2--2--2--4--4--4--4---------------------------------|  / Times
A|-0--0--0--0--2--2--2--2--4--4--4--4---------------------------------| /
E|-------------0--0--0--0--2--2--2--2---------------------------------|/
      I wanna see it now                                     
   D  D  D  U  D  D  D  U  D  D  D  U  D  U  D  U  D  U
e|-------------------------------------2--2--2--2--2--2---------------|
B|-2--2--2--2--------------------------3--3--3--3--3--3---------------|
G|-2--2--2--2--1--1--1--1--2--2--2--2--2--2--2--2--2--2---------------|
D|-2--2--2--2--2--2--2--2--4--4--4--4---------------------------------|
A|-0--0--0--0--2--2--2--2--4--4--4--4---------------------------------|
E|-------------0--0--0--0--2--2--2--2---------------------------------|


Notes: This is how I play it, put together from various tabs/chords on this site. 
Fun to play and sing for novice guitarists.
D = Strum Down
U = Strum Up
            
Submit corrections


        Car lessons Hard to play? Try these video lessons and learn fast Car lessons
        
↑ Back to top | Tablatures and chords for acoustic guitar and electric guitar, ukulele, drums are parodies/interpretations of the original songs. You may use it for private study, scholarship, research or language learning purposes only