» » »

Brand New - Cant Get It Out Tabs

Artists:  A B C D E F G H I J K L M N O P Q R S T U V W X Y Z # 

Cant Get It Out Tabs

(ver. 1) Click to play this song!
Brand New
 Rating:
4.2/5 (30 votes)

 Cant Get It Out lessons Tabs too difficult? Try these video lessons and learn fast
 
                
[Intro]
Guitar 1
e|-------------------|-------------------|-------------------|-------------------|
B|-------------------|-------------------|-------------------|-------------------|
G|-------------------|-5-5-5-5-5-5-5-5-x-|-------------------|-5-5-5-5-5-5-5-5-x-|
D|-6-6-6-6-6-6-6-6-x-|-5-5-5-5-5-5-5-5-x-|-6-6-6-6-6-6-6-6-x-|-5-5-5-5-5-5-5-5-x-| (x2)
A|-6-6-6-6-6-6-6-6-x-|-3-3-3-3-3-3-3-3-x-|-6-6-6-6-6-6-6-6-x-|-3-3-3-3-3-3-3-3-x-|
E|-4-4-4-4-4-4-4-4-x-|-------------------|-4-4-4-4-4-4-4-4-x-|-------------------|

[Verse 1]
Guitar 1
e|-------------------|-------------------|-------------------|-------------------|
B|-------------------|-------------------|-------------------|-------------------|
G|-------------------|-5-5-5-5-5-5-5-5-x-|-------------------|-5-5-5-5-5-5-5-5-x-|
D|-6-6-6-6-6-6-6-6-x-|-5-5-5-5-5-5-5-5-x-|-6-6-6-6-6-6-6-6-x-|-5-5-5-5-5-5-5-5-x-| 
A|-6-6-6-6-6-6-6-6-x-|-3-3-3-3-3-3-3-3-x-|-6-6-6-6-6-6-6-6-x-|-3-3-3-3-3-3-3-3-x-|
E|-4-4-4-4-4-4-4-4-x-|-------------------|-4-4-4-4-4-4-4-4-x-|-------------------|

e|-------------------|-------------------|-------------------|-------------------|
B|-------------------|-------------------|-------------------|-------------------|
G|-------------------|-5-5-5-5-5-5-5-5-x-|-8-8-8-8-8-8-8-8-x-|-5-5-5-5-5-5-5-5-x-|
D|-6-6-6-6-6-6-6-6-x-|-5-5-5-5-5-5-5-5-x-|-8-8-8-8-8-8-8-8-x-|-5-5-5-5-5-5-5-5-x-| 
A|-6-6-6-6-6-6-6-6-x-|-3-3-3-3-3-3-3-3-x-|-6-6-6-6-6-6-6-6-x-|-3-3-3-3-3-3-3-3-x-|
E|-4-4-4-4-4-4-4-4-x-|-------------------|-------------------|-------------------|

[Pre-Chorus 1]
Guitar 1 & 2
e|-------------|------------------|-------------|------------------|
B|-------------|------------------|-------------|------------------|
G|-------------|-8--8-8-8-8-8-8-8-|-5-5-5-5-5-5-|-8--8-8-8-8-8-8-8-|
D|-6-6-6-6-6-6-|-8--8-8-8-8-8-8-8-|-5-5-5-5-5-5-|-8--8-8-8-8-8-8-8-| (x2)
A|-6-6-6-6-6-6-|-6--6-6-6-6-6-6-6-|-3-3-3-3-3-3-|-6--6-6-6-6-6-6-6-|
E|-4-4-4-4-4-4-|------------------|-------------|------------------|

Guitar 2
e|-------------|
B|-------------|
G|-x-x-x-x-x-x-|
D|-x-x-x-x-x-x-|
A|-x-x-x-x-x-x-|
E|-x-x-x-x-x-x-|

[Verse 2]
Guitar 1
e|-------------------|-------------------|-------------------|-------------------|
B|-------------------|-------------------|-------------------|-------------------|
G|-------------------|-5-5-5-5-5-5-5-5-x-|-------------------|-5-5-5-5-5-5-5-5-x-|
D|-6-6-6-6-6-6-6-6-x-|-5-5-5-5-5-5-5-5-x-|-6-6-6-6-6-6-6-6-x-|-5-5-5-5-5-5-5-5-x-| 
A|-6-6-6-6-6-6-6-6-x-|-3-3-3-3-3-3-3-3-x-|-6-6-6-6-6-6-6-6-x-|-3-3-3-3-3-3-3-3-x-|
E|-4-4-4-4-4-4-4-4-x-|-------------------|-4-4-4-4-4-4-4-4-x-|-------------------|

e|-------------------|-------------------|-------------------|-------------------|
B|-------------------|-------------------|-------------------|-------------------|
G|-------------------|-5-5-5-5-5-5-5-5-x-|-8-8-8-8-8-8-8-8-x-|-5-5-5-5-5-5-5-5-x-|
D|-6-6-6-6-6-6-6-6-x-|-5-5-5-5-5-5-5-5-x-|-8-8-8-8-8-8-8-8-x-|-5-5-5-5-5-5-5-5-x-| 
A|-6-6-6-6-6-6-6-6-x-|-3-3-3-3-3-3-3-3-x-|-6-6-6-6-6-6-6-6-x-|-3-3-3-3-3-3-3-3-x-|
E|-4-4-4-4-4-4-4-4-x-|-------------------|-------------------|-------------------|

Guitar 2
e|-------------------|-------------------|-------------------|-------------------|
B|-------------------|-------------------|-------------------|-------------------|
G|-------------------|-------------------|-------------------|-------------------|
D|-------------------|-------------------|-------------------|-------------------|
A|----6----6--6------|----6---6----------|----6----6--6------|----6---6----------|
E|-------------------|-----------8-------|-------------------|-----------8-------|

[Pre-Chorus 2]
Guitar 1 & 2
e|-------------|------------------|-------------|------------------|
B|-------------|------------------|-------------|------------------|
G|-------------|-8--8-8-8-8-8-8-8-|-5-5-5-5-5-5-|-8--8-8-8-8-8-8-8-|
D|-6-6-6-6-6-6-|-8--8-8-8-8-8-8-8-|-5-5-5-5-5-5-|-8--8-8-8-8-8-8-8-| (x2)
A|-6-6-6-6-6-6-|-6--6-6-6-6-6-6-6-|-3-3-3-3-3-3-|-6--6-6-6-6-6-6-6-|
E|-4-4-4-4-4-4-|------------------|-------------|------------------|

[Chorus 1]
Guitar 1
e|-----------------|-----------------|-----------------|---------------------|
B|-----------------|-----------------|-----------------|---------------------|
G|-----------------|-5-5-5-5-5-5-5-5-|-8-8-8-8-8-8-8-8-|---------------------|
D|-6-6-6-6-6-6-6-6-|-5-5-5-5-5-5-5-5-|-8-8-8-8-8-8-8-8-|-6--6-6-6-6-6--6-6-6-| 
A|-6-6-6-6-6-6-6-6-|-3-3-3-3-3-3-3-3-|-6-6-6-6-6-6-6-6-|-6--6-6-6-6-6--6-6-6-|
E|-4-4-4-4-4-4-4-4-|-----------------|-----------------|-4--4-4-4-4-4--3-3-3-|

e|-------------|------------------|-------------|------------------|
B|-------------|------------------|-------------|------------------|
G|-------------|-8--8-8-8-8-8-8-8-|-5-5-5-5-5-5-|-8--8-8-8-8-8-8-8-|
D|-6-6-6-6-6-6-|-8--8-8-8-8-8-8-8-|-5-5-5-5-5-5-|-8--8-8-8-8-8-8-8-|
A|-6-6-6-6-6-6-|-6--6-6-6-6-6-6-6-|-3-3-3-3-3-3-|-6--6-6-6-6-6-6-6-|
E|-4-4-4-4-4-4-|------------------|-------------|------------------|

e|-----------------|-----------------|-----------------|-----------------|
B|-----------------|-----------------|-----------------|-----------------|
G|-----------------|-5-5-5-5-5-5-5-5-|-----------------|-5-5-5-5-5-5-5-5-|
D|-6-6-6-6-6-6-6-6-|-5-5-5-5-5-5-5-5-|-6-6-6-6-6-6-6-6-|-5-5-5-5-5-5-5-5-| (x2)
A|-6-6-6-6-6-6-6-6-|-3-3-3-3-3-3-3-3-|-6-6-6-6-6-6-6-6-|-3-3-3-3-3-3-3-3-|
E|-4-4-4-4-4-4-4-4-|-----------------|-4-4-4-4-4-4-4-4-|-----------------|

Guitar 2
e|-------------------------|------------------6-6-----|-------------11--13--11--|
B|------------8------------|-8br9-8--8-8-8--8-----8---|-/8-8-/11-11-------------|
G|-8-8-8-8-8----8-8--7-7-8-|------------------------8-|-------------------------|
D|-------------------------|--------------------------|-------------------------|
A|-------------------------|--------------------------|-------------------------|
E|-------------------------|--------------------------|-------------------------|

e|----------------------------------|----------------------------------|
B|------------8---------------------|---------------8b10-------8b10-8--|
G|-8-8-8-8-8----8-7-7-8-----8-8br10-|-8-7-8-7-8-7-8------8-7-8---------|
D|-----------------------8----------|----------------------------------|
A|----------------------------------|----------------------------------|
E|----------------------------------|----------------------------------|

e|----------------------------------------|----------------------------------------|
B|----------------------------------------|----------------------------------------|
G|-8--8-8-8-8-8-8-8-8-8b10-8--11-11b13-11-|-8--8-8-8-8-8-8-8-8-8b10-8--11-11b13-11-|
D|----------------------------------------|----------------------------------------| (x2)
A|----------------------------------------|----------------------------------------|
E|----------------------------------------|----------------------------------------|

e|-------------|
B|-------------|
G|-x-x-x-x-x-x-|
D|-x-x-x-x-x-x-|
A|-x-x-x-x-x-x-|
E|-x-x-x-x-x-x-|

[Verse 3]
Guitar 1
e|-------------------|-------------------|-------------------|-------------------|
B|-------------------|-------------------|-------------------|-------------------|
G|-------------------|-5-5-5-5-5-5-5-5-x-|-------------------|-5-5-5-5-5-5-5-5-x-|
D|-6-6-6-6-6-6-6-6-x-|-5-5-5-5-5-5-5-5-x-|-6-6-6-6-6-6-6-6-x-|-5-5-5-5-5-5-5-5-x-| 
A|-6-6-6-6-6-6-6-6-x-|-3-3-3-3-3-3-3-3-x-|-6-6-6-6-6-6-6-6-x-|-3-3-3-3-3-3-3-3-x-|
E|-4-4-4-4-4-4-4-4-x-|-------------------|-4-4-4-4-4-4-4-4-x-|-------------------|

e|-------------------|-------------------|-------------------|-------------------|
B|-------------------|-------------------|-------------------|-------------------|
G|-------------------|-5-5-5-5-5-5-5-5-x-|-8-8-8-8-8-8-8-8-x-|-5-5-5-5-5-5-5-5-x-|
D|-6-6-6-6-6-6-6-6-x-|-5-5-5-5-5-5-5-5-x-|-8-8-8-8-8-8-8-8-x-|-5-5-5-5-5-5-5-5-x-| 
A|-6-6-6-6-6-6-6-6-x-|-3-3-3-3-3-3-3-3-x-|-6-6-6-6-6-6-6-6-x-|-3-3-3-3-3-3-3-3-x-|
E|-4-4-4-4-4-4-4-4-x-|-------------------|-------------------|-------------------|

Guitar 2
e|-------------------|-------------------|-------------------|-------------------|
B|-------------------|-------------------|-------------------|-------------------|
G|-------------------|-------------------|-------------------|-------------------|
D|-------------------|-------------------|-------------------|-------------------|
A|-------------------|-------------------|----6----6--6------|----6---6----------|
E|-------------------|-------------------|-------------------|-----------8-------|

e|-------------------|-------------------|-------------------|-------------------|
B|-------------------|-------------------|-------------------|-------------------|
G|-------------------|-------------------|-------------------|-------------------|
D|-------------------|-------------------|-------------------|-------------------|
A|----6----6--6------|----6---6----------|----6----6--6------|----6---6----------|
E|-------------------|-----------8-------|-------------------|-----------8-------|

[Pre Chorus 3]
Guitar 1
e|-------------|------------------|-------------|------------------|
B|-------------|------------------|-------------|------------------|
G|-------------|-8--8-8-8-8-8-8-8-|-5-5-5-5-5-5-|-8--8-8-8-8-8-8-8-|
D|-6-6-6-6-6-6-|-8--8-8-8-8-8-8-8-|-5-5-5-5-5-5-|-8--8-8-8-8-8-8-8-| (x2)
A|-6-6-6-6-6-6-|-6--6-6-6-6-6-6-6-|-3-3-3-3-3-3-|-6--6-6-6-6-6-6-6-|
E|-4-4-4-4-4-4-|------------------|-------------|------------------|

Guitar 2
e|----------------------------------|-----------------------|
B|------------8---------------------|---------------8-------|
G|-8-8-8-8-8----8-7-7-8-----8-8br10-|-8-7-8-7-8-7-8---8-----|
D|-----------------------8----------|-------------------/10-|
A|----------------------------------|-----------------------|
E|----------------------------------|-----------------------|

e|--------------------------------|-------------------------------|
B|----------------------8-8br10-8-|---------------8-------8-------|
G|--------------8-----------------|-8-7-8-7-8-7-8---8-7-8---8-7-8-|
D|-10--10-10-10---10-8------------|-------------------------------|
A|--------------------------------|-------------------------------|
E|--------------------------------|-------------------------------|

[Chorus 3]
Guitar 1
e|-----------------|-----------------|-----------------|---------------------|
B|-----------------|-----------------|-----------------|---------------------|
G|-----------------|-5-5-5-5-5-5-5-5-|-8-8-8-8-8-8-8-8-|---------------------|
D|-6-6-6-6-6-6-6-6-|-5-5-5-5-5-5-5-5-|-8-8-8-8-8-8-8-8-|-6--6-6-6-6-6--6-6-6-| 
A|-6-6-6-6-6-6-6-6-|-3-3-3-3-3-3-3-3-|-6-6-6-6-6-6-6-6-|-6--6-6-6-6-6--6-6-6-|
E|-4-4-4-4-4-4-4-4-|-----------------|-----------------|-4--4-4-4-4-4--3-3-3-|

e|-------------|------------------|-------------|------------------|
B|-------------|------------------|-------------|------------------|
G|-------------|-8--8-8-8-8-8-8-8-|-5-5-5-5-5-5-|-8--8-8-8-8-8-8-8-|
D|-6-6-6-6-6-6-|-8--8-8-8-8-8-8-8-|-5-5-5-5-5-5-|-8--8-8-8-8-8-8-8-|
A|-6-6-6-6-6-6-|-6--6-6-6-6-6-6-6-|-3-3-3-3-3-3-|-6--6-6-6-6-6-6-6-|
E|-4-4-4-4-4-4-|------------------|-------------|------------------|

e|-----------------|-----------------|-----------------|-----------------|
B|-----------------|-----------------|-----------------|-----------------|
G|-----------------|-5-5-5-5-5-5-5-5-|-----------------|-5-5-5-5-5-5-5-5-|
D|-6-6-6-6-6-6-6-6-|-5-5-5-5-5-5-5-5-|-6-6-6-6-6-6-6-6-|-5-5-5-5-5-5-5-5-| (x2)
A|-6-6-6-6-6-6-6-6-|-3-3-3-3-3-3-3-3-|-6-6-6-6-6-6-6-6-|-3-3-3-3-3-3-3-3-|
E|-4-4-4-4-4-4-4-4-|-----------------|-4-4-4-4-4-4-4-4-|-----------------|

Guitar 2
e|-------------------------|------------------6-6-----|-------------11--13--11--|
B|------------8------------|-8br9-8--8-8-8--8-----8---|-/8-8-/11-11-------------|
G|-8-8-8-8-8----8-8--7-7-8-|------------------------8-|-------------------------|
D|-------------------------|--------------------------|-------------------------|
A|-------------------------|--------------------------|-------------------------|
E|-------------------------|--------------------------|-------------------------|

e|----------------------------------|----------------------------------|
B|------------8---------------------|---------------8b10-------8b10-8--|
G|-8-8-8-8-8----8-7-7-8-----8-8br10-|-8-7-8-7-8-7-8------8-7-8---------|
D|-----------------------8----------|----------------------------------|
A|----------------------------------|----------------------------------|
E|----------------------------------|----------------------------------|

e|----------------------------------------|----------------------------------------|
B|----------------------------------------|----------------------------------------|
G|-8--8-8-8-8-8-8-8-8-8b10-8--11-11b13-11-|-8--8-8-8-8-8-8-8-8-8b10-8--11-11b13-11-|
D|----------------------------------------|----------------------------------------| (x2)
A|----------------------------------------|----------------------------------------|
E|----------------------------------------|----------------------------------------|

e|-------------|
B|-------------|
G|-x-x-x-x-x-x-|
D|-x-x-x-x-x-x-|
A|-x-x-x-x-x-x-|
E|-x-x-x-x-x-x-|            
Submit corrections


        Cant Get It Out lessons Hard to play? Try these video lessons and learn fast Cant Get It Out lessons
        
↑ Back to top | Tablatures and chords for acoustic guitar and electric guitar, ukulele, drums are parodies/interpretations of the original songs. You may use it for private study, scholarship, research or language learning purposes only