» » »

Brand New - Brothers Song Tabs

Artists:  A B C D E F G H I J K L M N O P Q R S T U V W X Y Z # 

Brothers Song Tabs

(ver. 1) Click to play this song!
Brand New
 Rating:
4.4/5 (8 votes)

 Brothers Song  lessons Tabs too difficult? Try these video lessons and learn fast
 
                [Intro]

e|--------------------------------|--------------------------------|
B|--------------------------------|--------------------------------|
G|--------------------------------|--------------------------------|
D|10--10-9----9-----9--9---9--9-\5|7---x-5-5---7\----5-5---5---5-x-| x2
A|10--10-10---10----10-10--10-10\7|5---x-7-7---7\----x-x---x---x-x-|
E|8---8--8----0-----0--0---0------|------------5\----3-3---3---3-x-|


[Verse]

e|--------------------------------|--------------------------------|
B|--------------------------------|--------------------------------|
G|--------------------------------|--------------------------------|
D|10--10-9----9-----9--9---9--9-\5|7---x-5-5---7\----5-5---5---5-x-| x2
A|10--10-10---10----10-10--10-10\7|5---x-7-7---7\----x-x---x---x-x-|
E|8---8--8----0-----0--0---0------|------------5\----3-3---3---3-x-|


e|--------------------------------|--------------------------------|
B|--------------------------------|--------------------------------|
G|------------------------0-------|--------------------------------|
D|------------------------x-------|--------------------------------|
A|3---3---3---3---3---3---3---3-/-|7---7---7---7-\-5---5---5---5---|
E|1---1---1---1---1---1---1---1-/-|5---5---5---5-\-3---3---3---3---|


e|--------------------------------|--------------------------------|
B|--------------------------------|--------------------------------|
G|--------------------------------|--------------------------------|
D|--------------------------------|--------------------------------|
A|3---3---3---3---3---3---3---3-/-|7---7---7---7-\-5---5---5---5---|
E|1---1---1---1---1---1---1---1-/-|5---5---5---5-\-3---3---3---3---|


e|--------------------------------|--------------------------------|
B|--------------------------------|--------------------------------|
G|--------0-----------------------|--------------------------------|
D|--------x-----------------------|--------------------------------|
A|3---3---3---3---3---3---3---3-/-|7---7---7---7-\-5---5---5---5---|
E|1---1---1---1---1---1---1---1-/-|5---5---5---5-\-3---3---3---3---|


e|--------------------------------|--------------------------------|
B|--------------------------------|--------------------------------|
G|--------------------------------|--------------------------------|
D|--------------------------------|--------------------------------|
A|3---3---3---3---3---3---3---3-/-|5---5---5---5---5---5---5---5---|
E|1---1---1---1---1---1---1---1-/-|3---3---3---3---3---3---3---3---|


[Chorus]

e|--------------------------------|7-------7-----------------------|
B|5-------5-------5-------5-------|----------------6-------6-------|
G|----5-------5-------5-------5---|----5-------5-------5-------5---|
D|--------------------------------|--------------------------------|
A|--------------------------------|--------------------------------|
E|--------------------------------|--------------------------------|
 |                                                                  x2
e|--------------------------------|--------------------------------|
B|--------------------------------|--------------------------------|
G|--------------------------------|--------------------------------|
D|--------------------------------|--------------------------------|
A|10--10--10--10--10--10--10--10--|7---7---7---7---5---5---5---5---|
E|8---8---8---8---8---8---8---8---|5---5---5---5---3---3---3---3---|


e|--------------------------------|--------------------------------|
B|------8-------------------------|--------------------------------|
G|7--/9---------------------------|7---------------5---------------|
D|--------------------------------|------------------------5-------|
A|--------------------------------|--------------------------------|
E|--------------------------------|--------------------------------|
 |                                                                  x2
e|--------------------------------|--------------------------------|
B|--------------------------------|--------------------------------|
G|--------------------------------|--------------------------------|
D|--------------------------------|--------------------------------|
A|3---3---3---3---3---3---3---3---|7---7---7---7---5---5---5---5---|
E|1---1---1---1---1---1---1---1---|5---5---5---5---3---3---3---3---|


e|--------------------------------|--------------------------------|
B|--------------------------------|--------------------------------|
G|4b5r4-4-----2~------------------|4b5r4-4-------------------------|
D|--------------------------------|-------------5~-----------------|
A|--------------------------------|--------------------------------|
E|--------------------------------|--------------------------------|
 |                                                                  x2
e|--------------------------------|--------------------------------|
B|--------------------------------|--------------------------------|
G|--------------------------------|--------------------------------|
D|10-10-10-10-9-------------------|7-7-7-7-----7\----5-5---5---5-x-|
A|10-10-10-10-10------------------|7-7-7-7-----7\----x-x---x---x-x-|
E|8--8--8--8--0-------------------|5-5-5-5-----5\----3-3---3---3-x-|


[Verse]

e|--------------------------------|--------------------------------|
B|--------------------------------|--------------------------------|
G|--------------------------------|--------------------------------|
D|10--10-9----9-----9--9---9--9-\5|7---x-5-5---7\----5-5---5---5-x-| x2
A|10--10-10---10----10-10--10-10\7|5---x-7-7---7\----x-x---x---x-x-|
E|8---8--8----0-----0--0---0------|------------5\----3-3---3---3-x-|


e|--------------------------------|--------------------------------|
B|--------------------------------|--------------------------------|
G|9~------------------------------|--------------------------------|
D|--------------------------------|--------------------------------|
A|--------------------------------|--------------------------------|
E|--------------------------------|--------------------------------|
 |
e|--------------------------------|--------------------------------|
B|--------------------------------|--------------------------------|
G|--------------------------------|--------------------------------|
D|--------------------------------|--------------------------------| x3
A|3---3---3---3---3---3---3---3-/-|7---7---7---7-\-5---5---5---5---|
E|1---1---1---1---1---1---1---1-/-|5---5---5---5-\-3---3---3---3---|


e|--------------------------------|--------------------------------|
B|--------------------------------|--------------------------------|
G|7~------------------------------|------------------------/9~-----|
D|--------------------------------|--------------------------------|
A|--------------------------------|--------------------------------|
E|--------------------------------|--------------------------------|
 |
e|--------------------------------|--------------------------------|
B|--------------------------------|--------------------------------|
G|--------------------------------|--------------------------------|
D|--------------------------------|--------------------------------|
A|3---3---3---3---3---3---3---3-/-|5---5---5---5---5---5---5---5---|
E|1---1---1---1---1---1---1---1-/-|3---3---3---3---3---3---3---3---|


[Chorus]

e|--------------------------------|7-------7-----------------------|
B|5-------5-------5-------5-------|----------------6-------6-------|
G|----5-------5-------5-------5---|----5-------5-------5-------5---|
D|--------------------------------|--------------------------------|
A|--------------------------------|--------------------------------|
E|--------------------------------|--------------------------------|
 |                                                                  x2
e|--------------------------------|--------------------------------|
B|--------------------------------|--------------------------------|
G|--------------------------------|--------------------------------|
D|--------------------------------|--------------------------------|
A|10--10--10--10--10--10--10--10--|7---7---7---7---5---5---5---5---|
E|8---8---8---8---8---8---8---8---|5---5---5---5---3---3---3---3---|


e|--------------------------------|--------------------------------|
B|------8-------------------------|--------------------------------|
G|7--/9---------------------------|7---------------5---------------|
D|--------------------------------|------------------------5-------|
A|--------------------------------|--------------------------------|
E|--------------------------------|--------------------------------|
 |                                                                  x2
e|--------------------------------|--------------------------------|
B|--------------------------------|--------------------------------|
G|--------------------------------|--------------------------------|
D|--------------------------------|--------------------------------|
A|3---3---3---3---3---3---3---3---|7---7---7---7---5---5---5---5---|
E|1---1---1---1---1---1---1---1---|5---5---5---5---3---3---3---3---|


[Bridge]

e|--------------------------------|--------------------------------|
B|------------8-------------------|------5-----------5-------------|
G|/7----9-----------9-----7---9---|--------------------------------|
D|--------------------------------|7-----------5-----------5-------|
A|--------------------------------|----------------------------8---|
E|--------------------------------|--------------------------------|
 |
e|--------------------------------|--------------------------------|
B|--------------------------------|--------------------------------|
G|--------------------------------|--------------------------------|
D|10-10-10-10-9-------------------|7-7-7-7-----7\----5-5---5---5-x-|
A|10-10-10-10-10------------------|7-7-7-7-----7\----x-x---x---x-x-|
E|8--8--8--8--0-------------------|5-5-5-5-----5\----3-3---3---3-x-|

  Overdub
e|--------------------------------|------------------------0///////|
B|--------------------------------|--------------------------------|
G|--------------------------------|--------------------------------|
D|--------------------------------|--------------------------------|
A|--------------------------------|--------------------------------|
E|--------------------------------|--------------------------------|
 |
e|--------------------------------|--------------------------------|
B|------------8-------------------|------5-----------5-------------|
G|/7----9-----------9-----7---9---|--------------------------------|
D|--------------------------------|7-----------5-----------5-------|
A|--------------------------------|----------------------------8---|
E|--------------------------------|--------------------------------|
 |
e|--------------------------------|--------------------------------|
B|--------------------------------|--------------------------------|
G|--------------------------------|--------------------------------|
D|--------------------------------|--------------------------------|
A|3---3---3---3---3---3---3---3---|3---3---3---3---3---3---3---3---|
E|1---1---1---1---1---1---1---1---|1---1---1---1---1---1---1---1---|


[Chorus]

e|12~-----------------------------|--------------------------------|
B|--------------------------------|--------------------------------|
G|--------------------------------|--------------------------------|
D|--------------------------------|--------------------------------|
A|--------------------------------|--------------------------------|
E|--------------------------------|--------------------------------|
 |
e|--------------------------------|7-------7-----------------------|
B|5-------5-------5-------5-------|----------------6-------6-------|
G|----5-------5-------5-------5---|----5-------5-------5-------5---|
D|--------------------------------|--------------------------------| x2
A|--------------------------------|--------------------------------|
E|--------------------------------|--------------------------------|
 |
e|--------------------------------|--------------------------------|
B|--------------------------------|--------------------------------|
G|--------------------------------|--------------------------------|
D|--------------------------------|--------------------------------|
A|10--10--10--10--10--10--10--10--|7---7---7---7---5---5---5---5---|
E|8---8---8---8---8---8---8---8---|5---5---5---5---3---3---3---3---|


e|12~-----------------------------|--------------\\3~--------------| fade on repeat
B|--------------------------------|--------------------------------|
G|--------------------------------|--------------------------------|
D|--------------------------------|--------------------------------|
A|--------------------------------|--------------------------------|
E|--------------------------------|--------------------------------|
 |
e|--------------------------------|--------------------------------|
B|------8-------------------------|--------------------------------|
G|7--/9---------------------------|7---------------5---------------|
D|--------------------------------|------------------------5-------| x2
A|--------------------------------|--------------------------------|
E|--------------------------------|--------------------------------|
 |
e|--------------------------------|--------------------------------|
B|--------------------------------|--------------------------------|
G|--------------------------------|--------------------------------|
D|--------------------------------|--------------------------------|
A|3---3---3---3---3---3---3---3---|7---7---7---7---5---5---5---5---|
E|1---1---1---1---1---1---1---1---|5---5---5---5---3---3---3---3---|


[Outro]

e|--------------------------------|--------------------------------|
B|--------------------------------|--------------------------------|
G|4b5r4-4-----2~------------------|4b5r4-4-------------------------|
D|--------------------------------|-------------5~-----------------|
A|--------------------------------|--------------------------------|
E|--------------------------------|--------------------------------|
 |
e|--------------------------------|--------------------------------|
B|--------------------------------|--------------------------------|
G|--------------------------------|--------------------------------|
D|10-10-10-10-9-------------------|7-7-7-7-----7\----5-5---5---5-x-|
A|10-10-10-10-10------------------|7-7-7-7-----7\----x-x---x---x-x-|
E|8--8--8--8--0-------------------|5-5-5-5-----5\----3-3---3---3-x-|


e|------------0---------------0---|------------0---------------0---|
B|--------------------0-----------|----0---------------0-----------|
G|4b5r4-4---5-----5-------5-------|5-------5-------5-------5-------|
D|--------------------------------|--------------------------------|
A|--------------------------------|--------------------------------|
E|--------------------------------|--------------------------------|
 |
e|0-------------------------------|--------------------------------|
B|0-------------------------------|--------------------------------|
G|0-------------------------------|--------------------------------|
D|2-------------------------------|--------------------------------|
A|3-------------------------------|--------------------------------|
E|0-------------------------------|--------------------------------|
            
Submit corrections


        Brothers Song  lessons Hard to play? Try these video lessons and learn fast Brothers Song  lessons
        
↑ Back to top | Tablatures and chords for acoustic guitar and electric guitar, ukulele, drums are parodies/interpretations of the original songs. You may use it for private study, scholarship, research or language learning purposes only