» » »

Brand New - Battalions Tabs

Artists:  A B C D E F G H I J K L M N O P Q R S T U V W X Y Z # 

Battalions Tabs

(ver. 1) Click to play this song!
Brand New
 Rating:
4.3/5 (18 votes)

 Battalions  lessons Tabs too difficult? Try these video lessons and learn fast
 
                [0:03-1:45]
e|------------------|--------------------------|------------------|------------------|
B|------------------|--------------------------|------------------|------------------|
G|------------------|--------------------------|------------------|------------------|
D|------------------|--------------------------|------------------|------------------|
A|------------------|--------------------------|------------------|------------------|
E|--8-8-8-8-8-8-8-8-|--10-10-10-10-10-10-10-10-|--4-4-4-4-4-4-4-4-|--1-1-1-1-1-1-1-1-|

e|------------------|------------------|------------------|------------------|
B|------------------|------------------|------------------|------------------|
G|------------------|------------------|------------------|------------------|
D|------------------|------------------|------------------|------------------|
A|------------------|------------------|------------------|------------------|
E|--8-8-8-8-8-8-8-8-|--6-6-6-6-6-6-6-6-|--4-4-4-4-4-4-4-4-|--1-1-1-1-1-1-1-1-|

e|------------------|--------------------------|------------------|------------------|
B|------------------|--------------------------|------------------|------------------|
G|------------------|--------------------------|------------------|------------------|
D|------------------|--------------------------|------------------|------------------|
A|------------------|--------------------------|------------------|------------------|
E|--8-8-8-8-8-8-8-8-|--10-10-10-10-10-10-10-10-|--4-4-4-4-4-4-4-4-|--1-1-1-1-1-1-1-1-|

e|------------------|------------------|------------------|------------------|
B|------------------|------------------|------------------|------------------|
G|------------------|------------------|------------------|------------------|
D|------------------|------------------|------------------|------------------|
A|------------------|------------------|------------------|------------------|
E|--8-8-8-8-8-8-8-8-|--6-6-6-6-6-6-6-6-|--4-4-4-4-4-4-4-4-|--1-1-1-1-1-1-1-1-|

e|------------------|--------------------------|------------------|------------------|
B|------------------|--------------------------|------------------|------------------|
G|------------------|--------------------------|------------------|------------------|
D|------------------|--------------------------|------------------|------------------|
A|------------------|--------------------------|------------------|------------------|
E|--8-8-8-8-8-8-8-8-|--10-10-10-10-10-10-10-10-|--4-4-4-4-4-4-4-4-|--1-1-1-1-1-1-1-1-|

e|------------------|------------------|------------------|------------------|
B|------------------|------------------|------------------|------------------|
G|------------------|------------------|------------------|------------------|
D|------------------|------------------|------------------|------------------|
A|------------------|------------------|------------------|------------------|
E|--8-8-8-8-8-8-8-8-|--6-6-6-6-6-6-6-6-|--1-1-1-1-1-1-1-1-|--4-4-4-4-4-4-4-4-|

e|------------------|--------------------------|------------------|------------------|
B|------------------|--------------------------|------------------|------------------|
G|------------------|--------------------------|------------------|------------------|
D|------------------|--------------------------|------------------|------------------|
A|------------------|--------------------------|------------------|------------------|
E|--8-8-8-8-8-8-8-8-|--10-10-10-10-10-10-10-10-|--4-4-4-4-4-4-4-4-|--1-1-1-1-1-1-1-1-|

e|------------------|------------------|------------------|------------------|
B|------------------|------------------|------------------|------------------|
G|------------------|------------------|------------------|------------------|
D|------------------|------------------|------------------|------------------|
A|------------------|------------------|------------------|------------------|
E|--8-8-8-8-8-8-8-8-|--6-6-6-6-6-6-6-6-|--4-4-4-4-4-4-4-4-|--1-1-1-1-1-1-1-1-|

e|------------------|--------------------------|------------------|------------------|
B|------------------|--------------------------|------------------|------------------|
G|------------------|--------------------------|------------------|------------------|
D|------------------|--------------------------|------------------|------------------|
A|------------------|--------------------------|------------------|------------------|
E|--8-8-8-8-8-8-8-8-|--10-10-10-10-10-10-10-10-|--4-4-4-4-4-4-4-4-|--1-1-1-1-1-1-1-1-|

e|------------------|------------------|------------------|------------------|
B|------------------|------------------|------------------|------------------|
G|------------------|------------------|------------------|------------------|
D|------------------|------------------|------------------|------------------|
A|------------------|------------------|------------------|------------------|
E|--8-8-8-8-8-8-8-8-|--6-6-6-6-6-6-6-6-|--8-8-8-8-8-8-8-8-|--6-6-6-6-6-6-6-6-|

e|------------------|------------------|------------------|------------------|
B|------------------|------------------|------------------|------------------|
G|------------------|------------------|------------------|------------------|
D|------------------|------------------|------------------|------------------|
A|------------------|------------------|------------------|------------------|
E|--8-8-8-8-8-8-8-8-|--6-6-6-6-6-6-6-6-|--4-4-4-4-4-4-4-4-|--1-1-1-1-4-4-4-4-|

[1:45-2:16]
e|--------------------------|--------------------------|
B|--------------------------|--------------------------|
G|--------------------------|--------------------------|
D|--------------------------|--------------------------|
A|--------------------------|--------------------------|
E|--11-11-11-11-11-11-11-11-|--11-11-11-11-11-13-13-13-|

e|--------------------------|--------------------------|
B|--------------------------|--------------------------|
G|--------------------------|--------------------------|
D|--------------------------|--------------------------|
A|--------------------------|--------------------------|
E|--11-11-11-11-11-11-11-11-|--11-11-11-11-11-11-11-11-|

e|--------------------------|--------------------------|
B|--------------------------|--------------------------|
G|--------------------------|--------------------------|
D|--------------------------|--------------------------|
A|--------------------------|--------------------------|
E|--10-10-10-10-10-10-10-10-|--10-10-10-10-10-10-10-10-|

e|------------------|------------------|
B|------------------|------------------|
G|------------------|------------------|
D|------------------|------------------|
A|------------------|------------------|
E|--4-4-4-4-4-4-4-4-|--1-1-1-1-4-4-4-4-|

e|--------------------------|--------------------------|
B|--------------------------|--------------------------|
G|--------------------------|--------------------------|
D|--------------------------|--------------------------|
A|--------------------------|--------------------------|
E|--11-11-11-11-11-11-11-11-|--11-11-11-11-11-13-13-13-|

e|--------------------------|--------------------------|
B|--------------------------|--------------------------|
G|--------------------------|--------------------------|
D|--------------------------|--------------------------|
A|--------------------------|--------------------------|
E|--11-11-11-11-11-11-11-11-|--11-11-11-11-11-11-11-11-|

e|--------------------------|--------------------------|
B|--------------------------|--------------------------|
G|--------------------------|--------------------------|
D|--------------------------|--------------------------|
A|--------------------------|--------------------------|
E|--10-10-10-10-10-10-10-10-|--10-10-10-10-10-10-10-10-|

e|------------------|------------------|
B|------------------|------------------|
G|------------------|------------------|
D|------------------|------------------|
A|------------------|------------------|
E|--4-4-4-4-4-4-4-4-|--4-4-4-4-1-1-1-1-|

[2:17-3:11]
e|------------------|--------------------------|------------------|------------------|
B|------------------|--------------------------|------------------|------------------|
G|------------------|--------------------------|------------------|------------------|
D|------------------|--------------------------|------------------|------------------|
A|------------------|--------------------------|------------------|------------------|
E|--8-8-8-8-8-8-8-8-|--10-10-10-10-10-10-10-10-|--4-4-4-4-4-4-4-4-|--1-1-1-1-1-1-1-1-|

e|------------------|------------------|------------------|------------------|
B|------------------|------------------|------------------|------------------|
G|------------------|------------------|------------------|------------------|
D|------------------|------------------|------------------|------------------|
A|------------------|------------------|------------------|------------------|
E|--8-8-8-8-8-8-8-8-|--6-6-6-6-6-6-6-6-|--4-4-4-4-4-4-4-4-|--1-1-1-1-1-1-1-1-|

e|------------------|--------------------------|------------------|------------------|
B|------------------|--------------------------|------------------|------------------|
G|------------------|--------------------------|------------------|------------------|
D|------------------|--------------------------|------------------|------------------|
A|------------------|--------------------------|------------------|------------------|
E|--8-8-8-8-8-8-8-8-|--10-10-10-10-10-10-10-10-|--4-4-4-4-4-4-4-4-|--1-1-1-1-1-1-1-1-|

e|------------------|------------------|------------------|------------------|
B|------------------|------------------|------------------|------------------|
G|------------------|------------------|------------------|------------------|
D|------------------|------------------|------------------|------------------|
A|------------------|------------------|------------------|------------------|
E|--8-8-8-8-8-8-8-8-|--6-6-6-6-6-6-6-6-|--4-4-4-4-4-4-4-4-|--1-1-1-1-1-1-1-1-|

e|------------------|--------------------------|------------------|------------------|
B|------------------|--------------------------|------------------|------------------|
G|------------------|--------------------------|------------------|------------------|
D|------------------|--------------------------|------------------|------------------|
A|------------------|--------------------------|------------------|------------------|
E|--8-8-8-8-8-8-8-8-|--10-10-10-10-10-10-10-10-|--4-4-4-4-4-4-4-4-|--1-1-1-1-1-1-1-1-|

e|------------------|------------------|------------------|------------------|
B|------------------|------------------|------------------|------------------|
G|------------------|------------------|------------------|------------------|
D|------------------|------------------|------------------|------------------|
A|------------------|------------------|------------------|------------------|
E|--8-8-8-8-8-8-8-8-|--6-6-6-6-6-6-6-6-|--8-8-8-8-8-8-8-8-|--6-6-6-6-6-6-6-6-|

e|------------------|------------------|------------------|------------------|
B|------------------|------------------|------------------|------------------|
G|------------------|------------------|------------------|------------------|
D|------------------|------------------|------------------|------------------|
A|------------------|------------------|------------------|------------------|
E|--8-8-8-8-8-8-8-8-|--6-6-6-6-6-6-6-6-|--4-4-4-4-4-4-4-4-|--1-1-1-1-4-4-4-4-|

[3:12-3:43]
e|--------------------------|--------------------------|
B|--------------------------|--------------------------|
G|--------------------------|--------------------------|
D|--------------------------|--------------------------|
A|--------------------------|--------------------------|
E|--11-11-11-11-11-11-11-11-|--11-11-11-11-11-13-13-13-|

e|--------------------------|--------------------------|
B|--------------------------|--------------------------|
G|--------------------------|--------------------------|
D|--------------------------|--------------------------|
A|--------------------------|--------------------------|
E|--11-11-11-11-11-11-11-11-|--11-11-11-11-11-11-11-11-|

e|--------------------------|--------------------------|
B|--------------------------|--------------------------|
G|--------------------------|--------------------------|
D|--------------------------|--------------------------|
A|--------------------------|--------------------------|
E|--10-10-10-10-10-10-10-10-|--10-10-10-10-10-10-10-10-|

e|------------------|------------------|
B|------------------|------------------|
G|------------------|------------------|
D|------------------|------------------|
A|------------------|------------------|
E|--4-4-4-4-4-4-4-4-|--1-1-1-1-4-4-4-4-|

e|--------------------------|--------------------------|
B|--------------------------|--------------------------|
G|--------------------------|--------------------------|
D|--------------------------|--------------------------|
A|--------------------------|--------------------------|
E|--11-11-11-11-11-11-11-11-|--11-11-11-11-11-13-13-13-|

e|--------------------------|--------------------------|
B|--------------------------|--------------------------|
G|--------------------------|--------------------------|
D|--------------------------|--------------------------|
A|--------------------------|--------------------------|
E|--11-11-11-11-11-11-11-11-|--11-11-11-13-13-13-11-11-|

e|--------------------------|--------------------------|
B|--------------------------|--------------------------|
G|--------------------------|--------------------------|
D|--------------------------|--------------------------|
A|--------------------------|--------------------------|
E|--10-10-10-10-10-10-10-10-|--10-10-10-10-10-10-10-10-|

e|------------------|------------------|
B|------------------|------------------|
G|------------------|------------------|
D|------------------|------------------|
A|------------------|------------------|
E|--4-4-4-4-4-4-4-4-|--4-4-4-4-1-1-1-1-|

[3:44-3:59]
e|------------------|------------------|------------------|------------------|
B|------------------|------------------|------------------|------------------|
G|------------------|------------------|------------------|------------------|
D|------------------|------------------|------------------|------------------|
A|------------------|------------------|------------------|------------------|
E|--8-8-8-8-8-8-8-8-|--6-6-6-6-6-6-6-6-|--8-8-8-8-8-8-8-8-|--6-6-6-6-6-6-6-6-|

e|------------------|------------------|------------------|------------------|
B|------------------|------------------|------------------|------------------|
G|------------------|------------------|------------------|------------------|
D|------------------|------------------|------------------|------------------|
A|------------------|------------------|------------------|------------------|
E|--8-8-8-8-8-8-8-8-|--6-6-6-6-6-6-6-6-|--4-4-4-4-4-4-4-4-|--4-4-4-4-4-4-4-4-|

[4:00-4:38]
e|------------------|--------------------------|------------------|------------------|
B|------------------|--------------------------|------------------|------------------|
G|------------------|--------------------------|------------------|------------------|
D|------------------|--------------------------|------------------|------------------|
A|------------------|--------------------------|------------------|------------------|
E|--8-8-8-8-8-8-8-8-|--10-10-10-10-10-10-10-10-|--4-4-4-4-4-4-4-4-|--1-1-1-1-1-1-1-1-|

e|------------------|------------------|------------------|------------------|
B|------------------|------------------|------------------|------------------|
G|------------------|------------------|------------------|------------------|
D|------------------|------------------|------------------|------------------|
A|------------------|------------------|------------------|------------------|
E|--8-8-8-8-8-8-8-8-|--6-6-6-6-6-6-6-6-|--4-4-4-4-4-4-4-4-|--1-1-1-1-1-1-1-1-|

e|------------------|--------------------------|------------------|------------------|
B|------------------|--------------------------|------------------|------------------|
G|------------------|--------------------------|------------------|------------------|
D|------------------|--------------------------|------------------|------------------|
A|------------------|--------------------------|------------------|------------------|
E|--8-8-8-8-8-8-8-8-|--10-10-10-10-10-10-10-10-|--4-4-4-4-4-4-4-4-|--1-1-1-1-1-1-1-1-|

e|------------------|------------------|------------------|------------------|
B|------------------|------------------|------------------|------------------|
G|------------------|------------------|------------------|------------------|
D|------------------|------------------|------------------|------------------|
A|------------------|------------------|------------------|------------------|
E|--8-8-8-8-8-8-8-8-|--6-6-6-6-6-6-6-6-|--8-8-8-8-8-8-8-8-|--6-6-6-6-6-6-6-6-|

e|------------------|------------------|------------------|------------------|
B|------------------|------------------|------------------|------------------|
G|------------------|------------------|------------------|------------------|
D|------------------|------------------|------------------|------------------|
A|------------------|------------------|------------------|------------------|
E|--8-8-8-8-8-8-8-8-|--6-6-6-6-6-6-6-6-|--4-4-4-4-4-4-4-4-|--1-1-1-1-4-4-4-4-|

[4:39-5:09]
e|--------------------------|--------------------------|
B|--------------------------|--------------------------|
G|--------------------------|--------------------------|
D|--------------------------|--------------------------|
A|--------------------------|--------------------------|
E|--11-11-11-11-11-11-11-11-|--11-11-11-11-11-13-13-13-|

e|--------------------------|--------------------------|
B|--------------------------|--------------------------|
G|--------------------------|--------------------------|
D|--------------------------|--------------------------|
A|--------------------------|--------------------------|
E|--11-11-11-11-11-11-11-11-|--11-11-11-13-13-13-11-11-|

e|--------------------------|--------------------------|
B|--------------------------|--------------------------|
G|--------------------------|--------------------------|
D|--------------------------|--------------------------|
A|--------------------------|--------------------------|
E|--10-10-10-10-10-10-10-10-|--10-10-10-10-10-10-10-10-|

e|------------------|------------------|
B|------------------|------------------|
G|------------------|------------------|
D|------------------|------------------|
A|------------------|------------------|
E|--4-4-4-4-4-4-4-4-|--4-4-4-4-4-4-4-4-|

e|--------------------------|--------------------------|
B|--------------------------|--------------------------|
G|--------------------------|--------------------------|
D|--------------------------|--------------------------|
A|--------------------------|--------------------------|
E|--11-11-11-11-11-11-11-11-|--11-11-11-11-11-13-13-13-|

e|--------------------------|--------------------------|
B|--------------------------|--------------------------|
G|--------------------------|--------------------------|
D|--------------------------|--------------------------|
A|--------------------------|--------------------------|
E|--11-11-11-11-11-11-11-11-|--11-11-11-13-13-13-11-11-|

e|--------------------------|--------------------------|
B|--------------------------|--------------------------|
G|--------------------------|--------------------------|
D|--------------------------|--------------------------|
A|--------------------------|--------------------------|
E|--10-10-10-10-10-10-10-10-|--10-10-10-10-10-10-10-10-|

e|------------------|------------------|
B|------------------|------------------|
G|------------------|------------------|
D|------------------|------------------|
A|------------------|------------------|
E|--4-4-4-4-4-4-4-4-|--4-4-4-4-1-1-1-1-|

[5:10-5:25]
e|------------------|------------------|------------------|------------------|
B|------------------|------------------|------------------|------------------|
G|------------------|------------------|------------------|------------------|
D|------------------|------------------|------------------|------------------|
A|------------------|------------------|------------------|------------------|
E|--8-8-8-8-8-8-8-8-|--6-6-6-6-6-6-6-6-|--8-8-8-8-8-8-8-8-|--6-6-6-6-6-6-6-6-|

e|------------------|------------------|------------------|------------------|
B|------------------|------------------|------------------|------------------|
G|------------------|------------------|------------------|------------------|
D|------------------|------------------|------------------|------------------|
A|------------------|------------------|------------------|------------------|
E|--8-8-8-8-8-8-8-8-|--6-6-6-6-6-6-6-6-|--4-4-4-4-4-4-4-4-|--4-4-4-4-4-4-4-4-|

[5:26-5:34]
e|------------------|------------------|------------------|------------------|
B|------------------|------------------|------------------|------------------|
G|------------------|------------------|------------------|------------------|
D|------------------|------------------|------------------|------------------|
A|------------------|------------------|------------------|------------------|
E|--8-8-8-8-8-8-8-8-|--8-8-8-8-8-8-8-8-|--8-8-8-8-8-8-8-8-|--8-8-8-8-8-8-8-8-|            
Submit corrections


        Battalions  lessons Hard to play? Try these video lessons and learn fast Battalions  lessons
        
↑ Back to top | Tablatures and chords for acoustic guitar and electric guitar, ukulele, drums are parodies/interpretations of the original songs. You may use it for private study, scholarship, research or language learning purposes only