» » »

Brand New - 451 Tabs

Artists:  A B C D E F G H I J K L M N O P Q R S T U V W X Y Z # 

451 Tabs

(ver. 1) Click to play this song!
Brand New
 Rating:
4.3/5 (19 votes)

 451 lessons Tabs too difficult? Try these video lessons and learn fast
 
                [Intro]
loose feel, heavy vibrato 
e|---------------------------------------------------------------------------|
B|---------------------------------------------------------------------------|
G|---------------------------------------------------------------------------|
D|---00-3-3-0---0--------0-3-2-0-----3-3-0---0-----------0-------------------|
A|------------3---3--0-3-------------------3---3-----0h3---------------------|
D|---------------------------------------------------------------------------|

e|---------------------------------------------------------------------------|
B|---------------------------------------------------------------------------|
G|-------5-------------------------------------------------------------------|
D|---5s7---7-5-3-5-----------------------------------------------------------|
A|-----------------5---------------------------------------------------------|
D|--------------------------------0h3p0--------------------------------------|

[Verse]
First time, backup guitar doubles this an octave lower and makes various noises/harmonics throughout
For the second chord he may be muting the G string but both ways work
e|---------------------------------------------------------------------------|
B|-15--------------------------15--------------------------------------------|
G|-14--------------------------12--------------------------------------------|
D|-12--------------------------14--------------------------------------------|
A|-----------------------------15--------------------------------------------|
D|---------------------------------------------------------------------------|

Second time one guitar appergiates these shapes listen closely for the pattern
The second guitar plays the same chords as the first time
e|--12------------13---ocassionally adds-15--------------------------------------|
B|--15------------13-------------------------------------------------------------|
G|--14------------12-------------------------------------------------------------|
D|--12------------10-------------------------------------------------------------|
A|--12------------10-------------------------------------------------------------|
D|--12------------10-------------------------------------------------------------|

[Pre-chorus]
e|---------------------------------------------------------------------------|
B|---------------------------------------------------------------------------|
G|---5-----------------------------------------------------------------------|
D|-3---5---7--5--------0-3---------------------------------------------------|
A|-3---5---------0--3--------------------------------------------------------|
D|-3---5---------------------------------------------------------------------|

[Chorus]
repeat as needed
e|---------------------------------------------------------------------------|
B|---------------------------------------------------------------------------|
G|------------5~-------------------------------------------------------------|
D|-00--000----------0-1-2-3--------------------------------------------------|
A|-00--000-------------------------------------------------------------------|
D|-00--000-------------------------------------------------------------------|

Second part is something like this
e|---------------------------------------------------------------------------|
B|---------------------------------------------------------------------------|
G|---------------------------------------------------------------------------|
D|--7-0--5-0--3-0-------------3-0--5-0--3-0---x2-----------------------------|
A|-----------------3-0---5-0-------------------------------------------------|
D|---------------------------------------------------------------------------|

[Solo]
e|---------------------------------------------------------------------------|
B|-------------------------------------6~------------------------------------|
G|----5p0-7p0-0--5p0-7p0-0--5p0-7p0-0------5p0-7p0--5p0-7p0--7p0-0--5p0-0----|
D|---------------------------------------------------------------------------|
A|---------------------------------------------------------------------------|
D|---------------------------------------------------------------------------|

e|---------------------------------------------------------------------------|
B|---------------------------------------8~----------------------------------|
G|-7p0-5p0--10p0-7p0--10p0-7p0--10p0-7p0-------10p0-0--7p0-0--5p0-0--5p0-0---|
D|---------------------------------------------------------------------------|
A|---------------------------------------------------------------------------|
D|---------------------------------------------------------------------------|

 Tremolo pick this as needed amounts aren't exact except for the three note part below 
e|-----------------------------------15~-----------------15-15-15-12-12-12-12-12-12-12-12---------|
B|-/13-13-13-13-13--/13-13-13-13-13------/13-13-13-13-13-13-13-13-13-13-13-15-15-15-13-13---------|
G|-/14-14-14-14-14--/14-14-14-14-14------/14-14-14-14-14-14-14-14-14-14-14-14-14-14-14-14---------|
D|------------------------------------------------------------------------------------------------|
A|------------------------------------------------------------------------------------------------|
D|------------------------------------------------------------------------------------------------|

Again, repeat these as needed                                repeat and end with
e|-13-13-13-13-13-13-13-12-12-12-12-12-12-13-13-13-13--15-15-15---------17-17-17-17----17---------|
B|-15-15-15-15-15-15-15-15-15-15-15-15-15-15-15-15-15--15-15-15---------15-15-15-15----15---------|
G|------------------------------------------------------------------------------------------------|
D|------------------------------------------------------------------------------------------------|
A|------------------------------------------------------------------------------------------------|
D|------------------------------------------------------------------------------------------------|
into feedback and random and riffage 

[Chorus with key change] Repeat as needed, there's riffage in the second part but I'm too lazy at this point
e|---------------------------------------------------------------------------|
B|---------------------------------------------------------------------------|
G|----------8~-3-4-5----3-3-3-3-3-5-5-5-5------------------------------------|
D|----------------------3-3-3-3-3-5-5-5-5------------------------------------|
A|----------------------1-1-1-1-1-3-3-3-3------------------------------------|
D|--33-333-------------------------------------------------------------------|

[Outro]
Play around with this .            eventually he ends with this, uptstroke the first chord
e|--------13-13-13---------------------------------------------6-6----3---------------|
B|--------13-13-13---------------------------------------------6-6----6---------------|
G|-------------------------------------------------------------7-7----5---------------|
D|------------------------------------------------------------------------------------|
A|------------------------------------------------------------------------------------|
D|-3-6-3------------------------------------------------------------------------------|            
Submit corrections


        451 lessons Hard to play? Try these video lessons and learn fast 451 lessons
        
↑ Back to top | Tablatures and chords for acoustic guitar and electric guitar, ukulele, drums are parodies/interpretations of the original songs. You may use it for private study, scholarship, research or language learning purposes only