Home » B » Brad Paisley »

Brad Paisley - Winter Wonderland Tabs

Artists:  A B C D E F G H I J K L M N O P Q R S T U V W X Y Z # 

Winter Wonderland Tabs

(ver. 2) Click to play this song!
Brad Paisley
This should be pretty close folks....any comments or mistakes let me know.



                        {hold bend}
|-------------------------------------------------------|
|----------------------------3---3-3--------------------|
|---------------------0-2b4----4-4b2----------0---------|
|--------------0-2h3-----------------------------5------|
|-------0-2h3--------------------------0h2h3--------7b8-|
|--2/3--------------------------------------------------|


|---------------------------10-8--5h8p5-------------------|
|---------------------8---8------------8--5h8p5-----------|
|---------0-----5---7---7----------------------7--7h9p7-5-|
|-------2-----5---9---------------------------------------|
|--2/3------7---------------------------------------------|
|---------------------------------------------------------|


There are a few "ghost notes" near the end of line 1 in between the open G and 
5th fret G notes. They're palm muted but I'm not 100% on what notes they are.

The solo will be coming soon.
            
Submit corrections

↑ Back to top | Tablatures and chords for acoustic guitar and electric guitar, ukulele, drums are parodies/interpretations of the original songs. You may use it for private study, scholarship, research or language learning purposes only