Home » B » Brad Paisley »

Brad Paisley - You'll Never Leave Harlan Alive Tabs

Artists:  A B C D E F G H I J K L M N O P Q R S T U V W X Y Z # 

You'll Never Leave Harlan Alive Tabs

(ver. 1) Click to play this song!
Brad Paisley
This solo that i guess is the one that is requested, is actually played 
on the fiddle.  I am a fiddle player as well as guitar play, and banjo 
player, and piano player.  You can do banjo tabs on here...but if there 
are any other fiddle players, maybe we should bug koree to do an option 
for fiddle tabs....anyways, i like to play this solo on the guitar, it 
works out nice.  I also like to play it on guitar at about 
double/triple speed,  because it would make a good break if the song 
was speeded up and played as a bluegrass instrumental.  Anyway, here it 
is, the way that i find works best on guitar. ( may be slightly different 
than actual fiddle break on cd, but this works out better on guitar in 
my opion.) 

CAPO ON THIRD (3) FREt
 

|------------|----------------|--------------|-------------|
|------------|----------2-----|--------------|-------------|
|--------2---|--2h4---4---4-0-|-2------0-----|-------------|
|-----4----4-|----------------|------4---4-0-|-2----2---4--|
|------------|----------------|--------------|-------------|
|------------|----------------|--------------|-------------|


|----------------|---------------|--------------|-------------------|
|----------------|---------2-----|--------------|-------------------|
|--------------2-|-2h4---4---4-0-|-2------0-2---|-2s4---------------|
|-2-0--------4---|---------------|------4-----4-|-------------------|
|-----2-0-2------|---------------|--------------|-------------------|
|----------------|---------------|--------------|-------------------|


|-----------------|----------------|--------------|-------------|
|-----------------|----------2-----|--------------|-------------|
|-(4)-------0-2-0-|-2h4----4---4-0-|-2------0-----|-------------|
|-----------------|----------------|------4---4-0-|-2----2---4--|
|-----------------|----------------|--------------|-------------|
|-----------------|----------------|--------------|-------------|


                                
|----------------|-------------|
|----------------|-------------|
|----------------|-------------|
|-2-0------------|-0-------2-0-|
|-----2-0-2--2-4-|-------------|
|----------------|-------------|


  
|----------------|----------|
|----------------|----------|
|-2S4--2---------|----------|
|---------4-2-0--|----------|
|----------------|-2--------|
|----------------|----------|
            
Submit corrections

↑ Back to top | Tablatures and chords for acoustic guitar and electric guitar, ukulele, drums are parodies/interpretations of the original songs. You may use it for private study, scholarship, research or language learning purposes only