Home » B » Brad Paisley »

Brad Paisley - Waitin On A Woman Tabs

Artists:  A B C D E F G H I J K L M N O P Q R S T U V W X Y Z # 

Waitin On A Woman Tabs

(ver. 1) Click to play this song!
Brad Paisley
----------------------------------------------------------------------------
                  Waitin' On A Woman - Brad Paisley
----------------------------------------------------------------------------
Tuning:Standard

::Please read the tab, listen to the song and play along before you reject this time. It 
get much closer that this::

Intro:
e|---------------------------------------|
B|---------13-13--------------13-13------|
G|--10h12--12-12-------10h12--12-12------|
D|--10---10--x-------10-----10--x--------|
A|---------------------------------------|
E|---------------------------------------|

e|---------------------------|
B|---------------------------|
G|------5-5----------5-5-----|
D|--3h5-5-5------3h5-5-5-----|
A|--3----x------3-----x------|
E|---------------------------|

Solo: (2:13)  ***These first 3's are played while he's still singing, hard to hear***
e|--------------------------------------------------------|
B|--------------------------------------------------------|
G|--------------------------------------------------------|
D|-*--*--*--*--------------------------------------5/7-5--|
A|-3~-3~-3~-3~-3p0---0-2~2~2~2~2b~-----2-3-3/5-5-5--------|
E|-----------------3------------------3-------------------|

e|-----------------------------------------5----5------|
B|--------------------------------------8bh--8bh--r8---|
G|--------------------------------7--------------------|
D|---5-3-2--------------------7-5---5------------------|
A|--5------3-3/5-3-5/7---7b-5--------------------------|
E|-7-------------------x-------------------------------|

e|----------------------------12-------------13---------------------|
B|-------13------------12-15h----r15------15----15----------13------|
G|-7/12bh---r12--12/14----------------14bh---------r14--12bh---r12--|
D|------------------------------------------------------------------|
A|------------------------------------------------------------------|
E|------------------------------------------------------------------|

e|----------------------------------------------|
B|----5-8----------5----------------------------|
G|-7bh---r7-7--7br--5h7p5-5---------------------|
D|-------------------------5-------5------------|
A|--------------------------8--7-5---5br-3------|
E|----------------------------------------5-----|

 b bend whole note
 bh bend and hold
 r release bend
 h hammer-on
 p pull-off
 ~ vibrato
 x Mute note
============================================================================
            
Submit corrections

↑ Back to top | Tablatures and chords for acoustic guitar and electric guitar, ukulele, drums are parodies/interpretations of the original songs. You may use it for private study, scholarship, research or language learning purposes only