Home » B » Brad Paisley »

Brad Paisley - Be The Lake Tabs

Artists:  A B C D E F G H I J K L M N O P Q R S T U V W X Y Z # 

Be The Lake Tabs

(ver. 1) Click to play this song!
Brad Paisley
Be the Lake 

Flat top Intro  

h = hammer on
/ = slide up
\ = Slide down
p = pull off


                        0:02             0:04
E-1-----------------------------------------------------------E
B-1h3-2h3-1---1-0-------------------------1-------------------B
G-0--------0-3-3-0---------------------0----------0h2p0-------G
D-----------------0h2p0-----------0h2p0--2-----0h2------------D
A----------------------2p0---0h1h2----------0h3---------------A
E-------------------------2/3---------------------------------E

      0:05             0:07
E------0------------------------------------E
B--1p0---3-2-1------------------------------B
G-----3--------3h4-0---0--------------------G
D-------------------2p0-----0---0-----------D
A-----------------------2h3--2h3------------A
E-------------------------------------------E

0:08                             0:10          0:12
E-0---1------------------------------------------------------------------E
B-1/3--3-1---------------------------------------1-----------------------B
G----------3-0-3h4-0-------0-----0----------------0-0-----------0h2p0----G
D---------------------0h2p0-0h2p0-----------0h1h2----------0h2p0---------D
A--------------------------------------0h1h2----------1-2/3--------------A
E---------------------------------0h2h3----------------------------------E

         0:14                   0:15            0:17
E--------1--------------------------------------3----E
B-0h1h2h3-3p1p0-0-0---------------3-0h2-1p0-----3----B
G--------------3-3-0------0----------------3p0--0----G
D--------------------0-2p0--0-2p0---------------0----D
A-----------------------------------------------2----A
E-----------------------------------------------3----E
            
Submit corrections

↑ Back to top | Tablatures and chords for acoustic guitar and electric guitar, ukulele, drums are parodies/interpretations of the original songs. You may use it for private study, scholarship, research or language learning purposes only